  0
SECTION
  2
HEADER
  9
$ACADVER
  1
AC1012
  9
$DWGCODEPAGE
  3
ansi_1252
  9
$INSBASE
 10
0.0
 20
0.0
 30
0.0
  9
$EXTMIN
 10
518064.005086
 20
8053619.84412
 30
0.000001
  9
$EXTMAX
 10
518168.280339
 20
8053751.153823
 30
0.000001
  9
$LIMMIN
 10
0.0
 20
0.0
  9
$LIMMAX
 10
292497.22
 20
692905.9
  9
$ORTHOMODE
 70
     0
  9
$REGENMODE
 70
     1
  9
$FILLMODE
 70
     1
  9
$QTEXTMODE
 70
     0
  9
$MIRRTEXT
 70
     1
  9
$DRAGMODE
 70
     2
  9
$LTSCALE
 40
1.0
  9
$OSMODE
 70
     0
  9
$ATTMODE
 70
     1
  9
$TEXTSIZE
 40
0.2
  9
$TRACEWID
 40
0.05
  9
$TEXTSTYLE
  7
MONOTEXT
  9
$CLAYER
  8
0
  9
$CELTYPE
  6
BYLAYER
  9
$CECOLOR
 62
   256
  9
$CELTSCALE
 40
1.0
  9
$DELOBJ
 70
     1
  9
$DISPSILH
 70
     0
  9
$DIMSCALE
 40
1.0
  9
$DIMASZ
 40
0.18
  9
$DIMEXO
 40
0.0625
  9
$DIMDLI
 40
0.38
  9
$DIMRND
 40
0.0
  9
$DIMDLE
 40
0.0
  9
$DIMEXE
 40
0.18
  9
$DIMTP
 40
0.0
  9
$DIMTM
 40
0.0
  9
$DIMTXT
 40
0.18
  9
$DIMCEN
 40
0.09
  9
$DIMTSZ
 40
0.0
  9
$DIMTOL
 70
     0
  9
$DIMLIM
 70
     0
  9
$DIMTIH
 70
     1
  9
$DIMTOH
 70
     1
  9
$DIMSE1
 70
     0
  9
$DIMSE2
 70
     0
  9
$DIMTAD
 70
     0
  9
$DIMZIN
 70
     0
  9
$DIMBLK
  1

  9
$DIMASO
 70
     1
  9
$DIMSHO
 70
     0
  9
$DIMPOST
  1

  9
$DIMAPOST
  1

  9
$DIMALT
 70
     0
  9
$DIMALTD
 70
     2
  9
$DIMALTF
 40
25.4
  9
$DIMLFAC
 40
1.0
  9
$DIMTOFL
 70
     0
  9
$DIMTVP
 40
0.0
  9
$DIMTIX
 70
     0
  9
$DIMSOXD
 70
     0
  9
$DIMSAH
 70
     0
  9
$DIMBLK1
  1

  9
$DIMBLK2
  1

  9
$DIMSTYLE
  2
STANDARD
  9
$DIMCLRD
 70
     0
  9
$DIMCLRE
 70
     0
  9
$DIMCLRT
 70
     0
  9
$DIMTFAC
 40
1.0
  9
$DIMGAP
 40
0.09
  9
$DIMJUST
 70
     0
  9
$DIMSD1
 70
     0
  9
$DIMSD2
 70
     0
  9
$DIMTOLJ
 70
     1
  9
$DIMTZIN
 70
     0
  9
$DIMALTZ
 70
     0
  9
$DIMALTTZ
 70
     0
  9
$DIMFIT
 70
     3
  9
$DIMUPT
 70
     0
  9
$DIMUNIT
 70
     2
  9
$DIMDEC
 70
     4
  9
$DIMTDEC
 70
     4
  9
$DIMALTU
 70
     2
  9
$DIMALTTD
 70
     2
  9
$DIMTXSTY
  7
MONOTEXT
  9
$DIMAUNIT
 70
     0
  9
$LUNITS
 70
     2
  9
$LUPREC
 70
     4
  9
$SKETCHINC
 40
0.1
  9
$FILLETRAD
 40
0.0
  9
$AUNITS
 70
     0
  9
$AUPREC
 70
     0
  9
$MENU
  1
ACAD
  9
$ELEVATION
 40
0.0
  9
$PELEVATION
 40
0.0
  9
$THICKNESS
 40
0.0
  9
$LIMCHECK
 70
     0
  9
$BLIPMODE
 70
     1
  9
$CHAMFERA
 40
0.0
  9
$CHAMFERB
 40
0.0
  9
$CHAMFERC
 40
0.0
  9
$CHAMFERD
 40
0.0
  9
$SKPOLY
 70
     0
  9
$TDCREATE
 40
2450683.422989352
  9
$TDUPDATE
 40
0.000000000
  9
$TDINDWG
 40
0.0010778241
  9
$TDUSRTIMER
 40
0.0000000000
  9
$USRTIMER
 70
     1
  9
$ANGBASE
 50
0.0
  9
$ANGDIR
 70
     0
  9
$PDMODE
 70
     0
  9
$PDSIZE
 40
0.0
  9
$PLINEWID
 40
0.0
  9
$COORDS
 70
     0
  9
$SPLFRAME
 70
     0
  9
$SPLINETYPE
 70
     6
  9
$SPLINESEGS
 70
     8
  9
$ATTDIA
 70
     0
  9
$ATTREQ
 70
     1
  9
$HANDLING
 70
     1
  9
$HANDSEED
  5
308
  9
$SURFTAB1
 70
     6
  9
$SURFTAB2
 70
     6
  9
$SURFTYPE
 70
     6
  9
$SURFU
 70
     6
  9
$SURFV
 70
     6
  9
$UCSNAME
  2

  9
$UCSORG
 10
0.0
 20
0.0
 30
0.0
  9
$UCSXDIR
 10
1.0
 20
0.0
 30
0.0
  9
$UCSYDIR
 10
0.0
 20
1.0
 30
0.0
  9
$PUCSNAME
  2

  9
$PUCSORG
 10
0.0
 20
0.0
 30
0.0
  9
$PUCSXDIR
 10
1.0
 20
0.0
 30
0.0
  9
$PUCSYDIR
 10
0.0
 20
1.0
 30
0.0
  9
$USERI1
 70
     0
  9
$USERI2
 70
     0
  9
$USERI3
 70
     0
  9
$USERI4
 70
     0
  9
$USERI5
 70
     0
  9
$USERR1
 40
0.0
  9
$USERR2
 40
0.0
  9
$USERR3
 40
0.0
  9
$USERR4
 40
0.0
  9
$USERR5
 40
0.0
  9
$WORLDVIEW
 70
     1
  9
$SHADEDGE
 70
     3
  9
$SHADEDIF
 70
    70
  9
$TILEMODE
 70
     1
  9
$MAXACTVP
 70
    16
  9
$PINSBASE
 10
0.0
 20
0.0
 30
0.0
  9
$PLIMCHECK
 70
     0
  9
$PEXTMIN
 10
1.000000E+20
 20
1.000000E+20
 30
1.000000E+20
  9
$PEXTMAX
 10
-1.000000E+20
 20
-1.000000E+20
 30
-1.000000E+20
  9
$PLIMMIN
 10
0.0
 20
0.0
  9
$PLIMMAX
 10
12.0
 20
9.0
  9
$UNITMODE
 70
     0
  9
$VISRETAIN
 70
     0
  9
$PLINEGEN
 70
     1
  9
$PSLTSCALE
 70
     1
  9
$TREEDEPTH
 70
  3020
  9
$PICKSTYLE
 70
     1
  9
$CMLSTYLE
  2
STANDARD
  9
$CMLJUST
 70
     0
  9
$CMLSCALE
 40
1.0
  9
$SAVEIMAGES
 70
     0
  0
ENDSEC
  0
SECTION
  2
CLASSES
  0
CLASS
  1
LWPOLYLINE
  2
AcDbPolyline
  3
"AutoCAD"
 90
        0
280
     0
281
     1
  0
CLASS
  1
IMAGE
  2
AcDbRasterImage
  3
ISM
 90
      127
280
     0
281
     1
  0
CLASS
  1
OLE2FRAME
  2
AcDbOle2Frame
  3
""
 90
        0
280
     0
281
     1
  0
CLASS
  1
HATCH
  2
AcDbHatch
  3
"ACAD_SEDONA"
 90
        0
280
     0
281
     1
  0
CLASS
  1
DICTIONARYVAR
  2
AcDbDictionaryVar
  3
"AutoCAD"
 90
        0
280
     0
281
     0
  0
CLASS
  1
RASTERVARIABLES
  2
AcDbRasterVariables
  3
ISM
 90
        0
280
     0
281
     0
  0
CLASS
  1
IMAGEDEF
  2
AcDbRasterImageDef
  3
ISM
 90
        0
280
     0
281
     0
  0
CLASS
  1
IMAGEDEF_REACTOR
  2
AcDbRasterImageDefReactor
  3
ISM
 90
        1
280
     0
281
     0
  0
CLASS
  1
IDBUFFER
  2
AcDbIdBuffer
  3
"Acad"
 90
        0
280
     0
281
     0
  0
CLASS
  1
SPATIAL_FILTER
  2
AcDbSpatialFilter
  3
"Acad"
 90
        0
280
     0
281
     0
  0
CLASS
  1
XRECORD
  2
AcDbXrecord
  3
"<Built In>"
 90
        0
280
     0
281
     0
  0
CLASS
  1
SORTENTSTABLE
  2
AcDbSortentsTable
  3
"AutoCAD"
 90
        0
280
     0
281
     0
  0
CLASS
  1
LAYER_INDEX
  2
AcDbLayerIndex
  3
"Acad"
 90
        0
280
     0
281
     0
  0
CLASS
  1
SPATIAL_INDEX
  2
AcDbSpatialIndex
  3
"Acad"
 90
        0
280
     0
281
     0
  0
CLASS
  1
OBJECT_PTR
  2
CAseDLPNTableRecord
  3
"ASE-LPNTableRecord"
 90
        1
280
     0
281
     0
  0
CLASS
  1
LAYOUT
  2
AcDbLayout
  3
"AutoCAD 2000"
 90
        1
280
     0
281
     0
  0
CLASS
  1
PLOTSETTINGS
  2
AcDbPlotSettings
  3
"AutoCAD 2000"
 90
        1
280
     0
281
     0
  0
CLASS
  1
ACDBDICTIONARYWDFLT
  2
AcDbDictionaryWithDefault
  3
"AutoCAD 2000"
 90
        1
280
     0
281
     0
  0
CLASS
  1
ACDBPLACEHOLDER
  2
AcDbPlaceHolder
  3
"AutoCAD 2000"
 90
        1
280
     0
281
     0
  0
CLASS
  1
VBA_PROJECT
  2
AcDbVbaProject
  3
"acadvba"
 90
        1
280
     0
281
     0
  0
CLASS
  1
WIPEOUT
  2
AcDbWipeout
  3
WipeOut|AutoCAD Express Tool|expresstools@autodesk.com
 90
      127
280
     0
281
     1
  0
CLASS
  1
WIPEOUTVARIABLES
  2
AcDbWipeoutVariables
  3
WipeOut|AutoCAD Express Tool|expresstools@autodesk.com
 90
        0
280
     0
281
     0
  0
CLASS
  1
RTEXT
  2
RText
  3
RText|AutoCAD Express Tool|expresstools@autodesk.com
 90
        0
280
     0
281
     1
  0
CLASS
  1
ARCALIGNEDTEXT
  2
AcDbArcAlignedText
  3
ATEXT|AutoCAD Express Tool|expresstools@autodesk.com
 90
        0
280
     0
281
     1
  0
ENDSEC
  0
SECTION
  2
TABLES
  0
TABLE
  2
VPORT
  5
8
100
AcDbSymbolTable
 70
     1
  0
VPORT
  5
25D
100
AcDbSymbolTableRecord
100
AcDbViewportTableRecord
  2
*ACTIVE
 70
     0
 10
0.0
 20
0.0
 11
1.0
 21
1.0
 12
291117.1768
 22
692168.9276
 13
0.0
 23
0.0
 14
1.0
 24
1.0
 15
0.0
 25
0.0
 16
0.0
 26
0.0
 36
1.0
 17
0.0
 27
0.0
 37
0.0
 40
0.000003
 41
1.852941
 42
50.0
 43
0.0
 44
0.0
 50
0.0
 51
0.0
 71
     0
 72
   100
 73
     1
 74
     1
 75
     0
 76
     0
 77
     0
 78
     0
  0
ENDTAB
  0
TABLE
  2
LTYPE
  5
5
100
AcDbSymbolTable
 70
     3
  0
LTYPE
  5
13
100
AcDbSymbolTableRecord
100
AcDbLinetypeTableRecord
  2
BYBLOCK
 70
    64
  3

 72
    65
 73
     0
 40
0.0
  0
LTYPE
  5
14
100
AcDbSymbolTableRecord
100
AcDbLinetypeTableRecord
  2
BYLAYER
 70
    64
  3

 72
    65
 73
     0
 40
0.0
  0
LTYPE
  5
15
100
AcDbSymbolTableRecord
100
AcDbLinetypeTableRecord
  2
CONTINUOUS
 70
    64
  3
Solid line
 72
    65
 73
     0
 40
0.0
  0
ENDTAB
  0
TABLE
  2
LAYER
  5
2
100
AcDbSymbolTable
 70
     4
  0
LAYER
  5
F
100
AcDbSymbolTableRecord
100
AcDbLayerTableRecord
  2
0
 70
     0
 62
     7
  6
CONTINUOUS
  0
LAYER
  5
1F
100
AcDbSymbolTableRecord
100
AcDbLayerTableRecord
  2
DATABASE
 70
     0
 62
     7
  6
CONTINUOUS
  0
LAYER
  5
20
100
AcDbSymbolTableRecord
100
AcDbLayerTableRecord
  2
LINEWORK
 70
     0
 62
     7
  6
CONTINUOUS
  0
LAYER
  5
29D
100
AcDbSymbolTableRecord
100
AcDbLayerTableRecord
  2
DEFAULT
 70
     0
 62
     7
  6
CONTINUOUS
  0
ENDTAB
  0
TABLE
  2
STYLE
  5
3
100
AcDbSymbolTable
 70
     2
  0
STYLE
  5
10
100
AcDbSymbolTableRecord
100
AcDbTextStyleTableRecord
  2
STANDARD
 70
     0
 40
0.0
 41
1.0
 50
0.0
 71
     0
 42
0.2
  3
txt
  4

  0
STYLE
  5
1E
100
AcDbSymbolTableRecord
100
AcDbTextStyleTableRecord
  2
MONOTEXT
 70
    64
 40
0.0
 41
1.0
 50
0.0
 71
     0
 42
0.2
  3
txt
  4

  0
ENDTAB
  0
TABLE
  2
VIEW
  5
6
100
AcDbSymbolTable
 70
     0
  0
ENDTAB
  0
TABLE
  2
UCS
  5
7
100
AcDbSymbolTable
 70
     0
  0
ENDTAB
  0
TABLE
  2
APPID
  5
9
100
AcDbSymbolTable
 70
     1
  0
APPID
  5
11
100
AcDbSymbolTableRecord
100
AcDbRegAppTableRecord
  2
ACAD
 70
     0
  0
ENDTAB
  0
TABLE
  2
DIMSTYLE
  5
A
100
AcDbSymbolTable
 70
     1
  0
DIMSTYLE
105
256
100
AcDbSymbolTableRecord
100
AcDbDimStyleTableRecord
  2
STANDARD
 70
     0
  3

  4

  5

  6

  7

 40
1.0
 41
0.18
 42
0.0625
 43
0.38
 44
0.18
 45
0.0
 46
0.0
 47
0.0
 48
0.0
 71
     0
 72
     0
 73
     1
 74
     1
 75
     0
 76
     0
 77
     0
 78
     0
140
0.18
141
0.09
142
0.0
143
25.4
144
1.0
145
0.0
146
1.0
147
0.09
170
     0
171
     2
172
     0
173
     0
174
     0
175
     0
176
     0
177
     0
178
     0
270
     2
271
     4
272
     4
273
     2
274
     2
275
     0
280
     0
281
     0
282
     0
283
     1
284
     0
285
     0
286
     0
287
     3
288
     0
340
10
  0
ENDTAB
  0
TABLE
  2
BLOCK_RECORD
  5
1
100
AcDbSymbolTable
 70
    31
  0
BLOCK_RECORD
  5
19
100
AcDbSymbolTableRecord
100
AcDbBlockTableRecord
  2
*MODEL_SPACE
  0
BLOCK_RECORD
  5
16
100
AcDbSymbolTableRecord
100
AcDbBlockTableRecord
  2
*PAPER_SPACE
  0
BLOCK_RECORD
  5
21
100
AcDbSymbolTableRecord
100
AcDbBlockTableRecord
  2
DOT
  0
BLOCK_RECORD
  5
25
100
AcDbSymbolTableRecord
100
AcDbBlockTableRecord
  2
CROSS
  0
BLOCK_RECORD
  5
2A
100
AcDbSymbolTableRecord
100
AcDbBlockTableRecord
  2
DIA_CROSS
  0
BLOCK_RECORD
  5
2F
100
AcDbSymbolTableRecord
100
AcDbBlockTableRecord
  2
BOX
  0
BLOCK_RECORD
  5
36
100
AcDbSymbolTableRecord
100
AcDbBlockTableRecord
  2
SINGLE_CIRCLE
  0
BLOCK_RECORD
  5
3B
100
AcDbSymbolTableRecord
100
AcDbBlockTableRecord
  2
DOUBLE_CIRCLE
  0
BLOCK_RECORD
  5
42
100
AcDbSymbolTableRecord
100
AcDbBlockTableRecord
  2
TRIANGLE_CIRCLE
  0
BLOCK_RECORD
  5
63
100
AcDbSymbolTableRecord
100
AcDbBlockTableRecord
  2
TRIANGLE
  0
BLOCK_RECORD
  5
69
100
AcDbSymbolTableRecord
100
AcDbBlockTableRecord
  2
DOUBLE_TRIANGLE
  0
BLOCK_RECORD
  5
72
100
AcDbSymbolTableRecord
100
AcDbBlockTableRecord
  2
BUSH
  0
BLOCK_RECORD
  5
7E
100
AcDbSymbolTableRecord
100
AcDbBlockTableRecord
  2
TREE_1
  0
BLOCK_RECORD
  5
93
100
AcDbSymbolTableRecord
100
AcDbBlockTableRecord
  2
TREE_2
  0
BLOCK_RECORD
  5
B8
100
AcDbSymbolTableRecord
100
AcDbBlockTableRecord
  2
VALVE
  0
BLOCK_RECORD
  5
BF
100
AcDbSymbolTableRecord
100
AcDbBlockTableRecord
  2
IRON_GRATE
  0
BLOCK_RECORD
  5
C9
100
AcDbSymbolTableRecord
100
AcDbBlockTableRecord
  2
HYDRANT
  0
BLOCK_RECORD
  5
E6
100
AcDbSymbolTableRecord
100
AcDbBlockTableRecord
  2
SIGN
  0
BLOCK_RECORD
  5
F0
100
AcDbSymbolTableRecord
100
AcDbBlockTableRecord
  2
CROSS_CIRCLE
  0
BLOCK_RECORD
  5
F7
100
AcDbSymbolTableRecord
100
AcDbBlockTableRecord
  2
PP
  0
BLOCK_RECORD
  5
10E
100
AcDbSymbolTableRecord
100
AcDbBlockTableRecord
  2
SOLID_CIRCLE
  0
BLOCK_RECORD
  5
136
100
AcDbSymbolTableRecord
100
AcDbBlockTableRecord
  2
SOLID_DOUBLE_CIRCLE
  0
BLOCK_RECORD
  5
152
100
AcDbSymbolTableRecord
100
AcDbBlockTableRecord
  2
SOLID_BOX
  0
BLOCK_RECORD
  5
17B
100
AcDbSymbolTableRecord
100
AcDbBlockTableRecord
  2
NORTH_POINT_1
  0
BLOCK_RECORD
  5
1A5
100
AcDbSymbolTableRecord
100
AcDbBlockTableRecord
  2
NORTH_POINT_2
  0
BLOCK_RECORD
  5
1BA
100
AcDbSymbolTableRecord
100
AcDbBlockTableRecord
  2
CIRCULAR_NTH_PT
  0
BLOCK_RECORD
  5
1C9
100
AcDbSymbolTableRecord
100
AcDbBlockTableRecord
  2
BOX_CROSS
  0
BLOCK_RECORD
  5
1FD
100
AcDbSymbolTableRecord
100
AcDbBlockTableRecord
  2
INTERSTATE
  0
BLOCK_RECORD
  5
205
100
AcDbSymbolTableRecord
100
AcDbBlockTableRecord
  2
HIGHWAY
  0
BLOCK_RECORD
  5
213
100
AcDbSymbolTableRecord
100
AcDbBlockTableRecord
  2
ARROW_HEAD
  0
BLOCK_RECORD
  5
22D
100
AcDbSymbolTableRecord
100
AcDbBlockTableRecord
  2
RIGHT_POINTER
  0
BLOCK_RECORD
  5
238
100
AcDbSymbolTableRecord
100
AcDbBlockTableRecord
  2
LEFT_POINTER
  0
BLOCK_RECORD
  5
243
100
AcDbSymbolTableRecord
100
AcDbBlockTableRecord
  2
LAMP_POST
  0
ENDTAB
  0
ENDSEC
  0
SECTION
  2
BLOCKS
  0
BLOCK
  5
1A
100
AcDbEntity
  8
0
100
AcDbBlockBegin
  2
*MODEL_SPACE
 70
     0
 10
0.0
 20
0.0
 30
0.0
  3
*MODEL_SPACE
  1

  0
ENDBLK
  5
1B
100
AcDbEntity
  8
0
100
AcDbBlockEnd
  0
BLOCK
  5
17
100
AcDbEntity
 67
     1
  8
0
100
AcDbBlockBegin
  2
*PAPER_SPACE
 70
     0
 10
0.0
 20
0.0
 30
0.0
  3
*PAPER_SPACE
  1

  0
ENDBLK
  5
18
100
AcDbEntity
 67
     1
  8
0
100
AcDbBlockEnd
  0
BLOCK
  5
22
100
AcDbEntity
  8
0
 62
     0
100
AcDbBlockBegin
  2
DOT
 70
    66
 10
100.0
 20
100.0
 30
0.0
  3
DOT
  1

  0
ATTDEF
  5
25F
100
AcDbEntity
  8
0
100
AcDbText
 10
0.0
 20
0.0
 40
1.0
  1

100
AcDbAttributeDefinition
  3
Name
  2
NAME
 70
     1
  0
ATTDEF
  5
260
100
AcDbEntity
  8
0
100
AcDbText
 10
0.0
 20
0.0
 40
1.0
  1

100
AcDbAttributeDefinition
  3
Feature Code
  2
FEATURE_CODE
 70
     1
  0
POINT
  5
23
100
AcDbEntity
  8
0
 62
     0
100
AcDbPoint
 10
100.0
 20
100.0
  0
ENDBLK
  5
24
100
AcDbEntity
  8
0
100
AcDbBlockEnd
  0
BLOCK
  5
26
100
AcDbEntity
  8
0
 62
     0
100
AcDbBlockBegin
  2
CROSS
 70
    66
 10
100.0
 20
100.0
 30
0.0
  3
CROSS
  1

  0
ATTDEF
  5
261
100
AcDbEntity
  8
0
100
AcDbText
 10
0.0
 20
0.0
 40
1.0
  1

100
AcDbAttributeDefinition
  3
Name
  2
NAME
 70
     1
  0
ATTDEF
  5
262
100
AcDbEntity
  8
0
100
AcDbText
 10
0.0
 20
0.0
 40
1.0
  1

100
AcDbAttributeDefinition
  3
Feature Code
  2
FEATURE_CODE
 70
     1
  0
LINE
  5
27
100
AcDbEntity
  8
0
 62
     0
100
AcDbLine
 10
0.0
 20
100.0
 11
200.0
 21
100.0
  0
LINE
  5
28
100
AcDbEntity
  8
0
 62
     0
100
AcDbLine
 10
100.0
 20
200.0
 11
100.0
 21
0.0
  0
ENDBLK
  5
29
100
AcDbEntity
  8
0
100
AcDbBlockEnd
  0
BLOCK
  5
2B
100
AcDbEntity
  8
0
 62
     0
100
AcDbBlockBegin
  2
DIA_CROSS
 70
    66
 10
100.0
 20
100.0
 30
0.0
  3
DIA_CROSS
  1

  0
ATTDEF
  5
263
100
AcDbEntity
  8
0
100
AcDbText
 10
0.0
 20
0.0
 40
1.0
  1

100
AcDbAttributeDefinition
  3
Name
  2
NAME
 70
     1
  0
ATTDEF
  5
264
100
AcDbEntity
  8
0
100
AcDbText
 10
0.0
 20
0.0
 40
1.0
  1

100
AcDbAttributeDefinition
  3
Feature Code
  2
FEATURE_CODE
 70
     1
  0
LINE
  5
2C
100
AcDbEntity
  8
0
 62
     0
100
AcDbLine
 10
0.0
 20
200.0
 11
200.0
 21
0.0
  0
LINE
  5
2D
100
AcDbEntity
  8
0
 62
     0
100
AcDbLine
 10
0.0
 20
0.0
 11
200.0
 21
200.0
  0
ENDBLK
  5
2E
100
AcDbEntity
  8
0
100
AcDbBlockEnd
  0
BLOCK
  5
30
100
AcDbEntity
  8
0
 62
     0
100
AcDbBlockBegin
  2
BOX
 70
    66
 10
100.0
 20
100.0
 30
0.0
  3
BOX
  1

  0
ATTDEF
  5
265
100
AcDbEntity
  8
0
100
AcDbText
 10
0.0
 20
0.0
 40
1.0
  1

100
AcDbAttributeDefinition
  3
Name
  2
NAME
 70
     1
  0
ATTDEF
  5
266
100
AcDbEntity
  8
0
100
AcDbText
 10
0.0
 20
0.0
 40
1.0
  1

100
AcDbAttributeDefinition
  3
Feature Code
  2
FEATURE_CODE
 70
     1
  0
LINE
  5
31
100
AcDbEntity
  8
0
 62
     0
100
AcDbLine
 10
0.0
 20
200.0
 11
200.0
 21
200.0
  0
LINE
  5
32
100
AcDbEntity
  8
0
 62
     0
100
AcDbLine
 10
200.0
 20
200.0
 11
200.0
 21
0.0
  0
LINE
  5
33
100
AcDbEntity
  8
0
 62
     0
100
AcDbLine
 10
200.0
 20
0.0
 11
0.0
 21
0.0
  0
LINE
  5
34
100
AcDbEntity
  8
0
 62
     0
100
AcDbLine
 10
0.0
 20
0.0
 11
0.0
 21
200.0
  0
ENDBLK
  5
35
100
AcDbEntity
  8
0
100
AcDbBlockEnd
  0
BLOCK
  5
37
100
AcDbEntity
  8
0
 62
     0
100
AcDbBlockBegin
  2
SINGLE_CIRCLE
 70
    66
 10
100.0
 20
100.0
 30
0.0
  3
SINGLE_CIRCLE
  1

  0
ATTDEF
  5
267
100
AcDbEntity
  8
0
100
AcDbText
 10
0.0
 20
0.0
 40
1.0
  1

100
AcDbAttributeDefinition
  3
Name
  2
NAME
 70
     1
  0
ATTDEF
  5
268
100
AcDbEntity
  8
0
100
AcDbText
 10
0.0
 20
0.0
 40
1.0
  1

100
AcDbAttributeDefinition
  3
Feature Code
  2
FEATURE_CODE
 70
     1
  0
ARC
  5
38
100
AcDbEntity
  8
0
 62
     0
100
AcDbCircle
 10
100.0
 20
100.0
 40
100.0
100
AcDbArc
 50
270.0
 51
90.0
  0
ARC
  5
39
100
AcDbEntity
  8
0
 62
     0
100
AcDbCircle
 10
100.0
 20
100.0
 40
100.0
100
AcDbArc
 50
90.0
 51
270.0
  0
ENDBLK
  5
3A
100
AcDbEntity
  8
0
100
AcDbBlockEnd
  0
BLOCK
  5
3C
100
AcDbEntity
  8
0
 62
     0
100
AcDbBlockBegin
  2
DOUBLE_CIRCLE
 70
    66
 10
100.0
 20
100.0
 30
0.0
  3
DOUBLE_CIRCLE
  1

  0
ATTDEF
  5
269
100
AcDbEntity
  8
0
100
AcDbText
 10
0.0
 20
0.0
 40
1.0
  1

100
AcDbAttributeDefinition
  3
Name
  2
NAME
 70
     1
  0
ATTDEF
  5
26A
100
AcDbEntity
  8
0
100
AcDbText
 10
0.0
 20
0.0
 40
1.0
  1

100
AcDbAttributeDefinition
  3
Feature Code
  2
FEATURE_CODE
 70
     1
  0
ARC
  5
3D
100
AcDbEntity
  8
0
 62
     0
100
AcDbCircle
 10
100.0
 20
100.0
 40
100.0
100
AcDbArc
 50
270.0
 51
90.0
  0
ARC
  5
3E
100
AcDbEntity
  8
0
 62
     0
100
AcDbCircle
 10
100.0
 20
100.0
 40
100.0
100
AcDbArc
 50
90.0
 51
270.0
  0
ARC
  5
3F
100
AcDbEntity
  8
0
 62
     0
100
AcDbCircle
 10
100.0
 20
100.0
 40
60.0
100
AcDbArc
 50
270.0
 51
90.0
  0
ARC
  5
40
100
AcDbEntity
  8
0
 62
     0
100
AcDbCircle
 10
100.0
 20
100.0
 40
60.0
100
AcDbArc
 50
90.0
 51
270.0
  0
ENDBLK
  5
41
100
AcDbEntity
  8
0
100
AcDbBlockEnd
  0
BLOCK
  5
43
100
AcDbEntity
  8
0
 62
     0
100
AcDbBlockBegin
  2
TRIANGLE_CIRCLE
 70
    66
 10
100.0
 20
80.0
 30
0.0
  3
TRIANGLE_CIRCLE
  1

  0
ATTDEF
  5
26B
100
AcDbEntity
  8
0
100
AcDbText
 10
0.0
 20
0.0
 40
1.0
  1

100
AcDbAttributeDefinition
  3
Name
  2
NAME
 70
     1
  0
ATTDEF
  5
26C
100
AcDbEntity
  8
0
100
AcDbText
 10
0.0
 20
0.0
 40
1.0
  1

100
AcDbAttributeDefinition
  3
Feature Code
  2
FEATURE_CODE
 70
     1
  0
LINE
  5
44
100
AcDbEntity
  8
0
 62
     0
100
AcDbLine
 10
0.0
 20
20.0
 11
200.0
 21
20.0
  0
LINE
  5
45
100
AcDbEntity
  8
0
 62
     0
100
AcDbLine
 10
100.0
 20
190.0
 11
0.0
 21
20.0
  0
LINE
  5
46
100
AcDbEntity
  8
0
 62
     0
100
AcDbLine
 10
200.0
 20
20.0
 11
100.0
 21
190.0
  0
ARC
  5
47
100
AcDbEntity
  8
0
 62
     0
100
AcDbCircle
 10
100.0
 20
77.0
 40
57.0
100
AcDbArc
 50
90.0
 51
270.0
  0
ARC
  5
48
100
AcDbEntity
  8
0
 62
     0
100
AcDbCircle
 10
100.0
 20
77.0
 40
57.0
100
AcDbArc
 50
270.0
 51
90.0
  0
LINE
  5
49
100
AcDbEntity
  8
0
 62
     0
100
AcDbLine
 10
100.0
 20
131.0
 11
100.0
 21
25.0
  0
LINE
  5
4A
100
AcDbEntity
  8
0
 62
     0
100
AcDbLine
 10
100.0
 20
25.0
 11
92.0
 21
26.0
  0
LINE
  5
4B
100
AcDbEntity
  8
0
 62
     0
100
AcDbLine
 10
92.0
 20
26.0
 11
92.0
 21
131.0
  0
LINE
  5
4C
100
AcDbEntity
  8
0
 62
     0
100
AcDbLine
 10
92.0
 20
131.0
 11
83.0
 21
129.0
  0
LINE
  5
4D
100
AcDbEntity
  8
0
 62
     0
100
AcDbLine
 10
83.0
 20
129.0
 11
83.0
 21
28.0
  0
LINE
  5
4E
100
AcDbEntity
  8
0
 62
     0
100
AcDbLine
 10
83.0
 20
28.0
 11
75.0
 21
31.0
  0
LINE
  5
4F
100
AcDbEntity
  8
0
 62
     0
100
AcDbLine
 10
75.0
 20
31.0
 11
75.0
 21
126.0
  0
LINE
  5
50
100
AcDbEntity
  8
0
 62
     0
100
AcDbLine
 10
75.0
 20
126.0
 11
66.0
 21
119.0
  0
LINE
  5
51
100
AcDbEntity
  8
0
 62
     0
100
AcDbLine
 10
66.0
 20
119.0
 11
66.0
 21
38.0
  0
LINE
  5
52
100
AcDbEntity
  8
0
 62
     0
100
AcDbLine
 10
66.0
 20
38.0
 11
58.0
 21
46.0
  0
LINE
  5
53
100
AcDbEntity
  8
0
 62
     0
100
AcDbLine
 10
58.0
 20
46.0
 11
58.0
 21
110.0
  0
LINE
  5
54
100
AcDbEntity
  8
0
 62
     0
100
AcDbLine
 10
58.0
 20
110.0
 11
51.0
 21
94.0
  0
LINE
  5
55
100
AcDbEntity
  8
0
 62
     0
100
AcDbLine
 10
51.0
 20
94.0
 11
51.0
 21
64.0
  0
LINE
  5
56
100
AcDbEntity
  8
0
 62
     0
100
AcDbLine
 10
100.0
 20
131.0
 11
108.0
 21
130.0
  0
LINE
  5
57
100
AcDbEntity
  8
0
 62
     0
100
AcDbLine
 10
108.0
 20
130.0
 11
108.0
 21
26.0
  0
LINE
  5
58
100
AcDbEntity
  8
0
 62
     0
100
AcDbLine
 10
108.0
 20
26.0
 11
117.0
 21
28.0
  0
LINE
  5
59
100
AcDbEntity
  8
0
 62
     0
100
AcDbLine
 10
117.0
 20
28.0
 11
117.0
 21
128.0
  0
LINE
  5
5A
100
AcDbEntity
  8
0
 62
     0
100
AcDbLine
 10
117.0
 20
128.0
 11
125.0
 21
125.0
  0
LINE
  5
5B
100
AcDbEntity
  8
0
 62
     0
100
AcDbLine
 10
125.0
 20
125.0
 11
125.0
 21
32.0
  0
LINE
  5
5C
100
AcDbEntity
  8
0
 62
     0
100
AcDbLine
 10
125.0
 20
32.0
 11
134.0
 21
37.0
  0
LINE
  5
5D
100
AcDbEntity
  8
0
 62
     0
100
AcDbLine
 10
134.0
 20
37.0
 11
134.0
 21
118.0
  0
LINE
  5
5E
100
AcDbEntity
  8
0
 62
     0
100
AcDbLine
 10
134.0
 20
118.0
 11
142.0
 21
111.0
  0
LINE
  5
5F
100
AcDbEntity
  8
0
 62
     0
100
AcDbLine
 10
142.0
 20
111.0
 11
142.0
 21
46.0
  0
LINE
  5
60
100
AcDbEntity
  8
0
 62
     0
100
AcDbLine
 10
142.0
 20
46.0
 11
149.0
 21
61.0
  0
LINE
  5
61
100
AcDbEntity
  8
0
 62
     0
100
AcDbLine
 10
149.0
 20
61.0
 11
149.0
 21
98.0
  0
ENDBLK
  5
62
100
AcDbEntity
  8
0
100
AcDbBlockEnd
  0
BLOCK
  5
64
100
AcDbEntity
  8
0
 62
     0
100
AcDbBlockBegin
  2
TRIANGLE
 70
    66
 10
100.0
 20
80.0
 30
0.0
  3
TRIANGLE
  1

  0
ATTDEF
  5
26D
100
AcDbEntity
  8
0
100
AcDbText
 10
0.0
 20
0.0
 40
1.0
  1

100
AcDbAttributeDefinition
  3
Name
  2
NAME
 70
     1
  0
ATTDEF
  5
26E
100
AcDbEntity
  8
0
100
AcDbText
 10
0.0
 20
0.0
 40
1.0
  1

100
AcDbAttributeDefinition
  3
Feature Code
  2
FEATURE_CODE
 70
     1
  0
LINE
  5
65
100
AcDbEntity
  8
0
 62
     0
100
AcDbLine
 10
0.0
 20
20.0
 11
200.0
 21
20.0
  0
LINE
  5
66
100
AcDbEntity
  8
0
 62
     0
100
AcDbLine
 10
0.0
 20
20.0
 11
100.0
 21
190.0
  0
LINE
  5
67
100
AcDbEntity
  8
0
 62
     0
100
AcDbLine
 10
100.0
 20
190.0
 11
200.0
 21
20.0
  0
ENDBLK
  5
68
100
AcDbEntity
  8
0
100
AcDbBlockEnd
  0
BLOCK
  5
6A
100
AcDbEntity
  8
0
 62
     0
100
AcDbBlockBegin
  2
DOUBLE_TRIANGLE
 70
    66
 10
100.0
 20
80.0
 30
0.0
  3
DOUBLE_TRIANGLE
  1

  0
ATTDEF
  5
26F
100
AcDbEntity
  8
0
100
AcDbText
 10
0.0
 20
0.0
 40
1.0
  1

100
AcDbAttributeDefinition
  3
Name
  2
NAME
 70
     1
  0
ATTDEF
  5
270
100
AcDbEntity
  8
0
100
AcDbText
 10
0.0
 20
0.0
 40
1.0
  1

100
AcDbAttributeDefinition
  3
Feature Code
  2
FEATURE_CODE
 70
     1
  0
LINE
  5
6B
100
AcDbEntity
  8
0
 62
     0
100
AcDbLine
 10
100.0
 20
190.0
 11
0.0
 21
20.0
  0
LINE
  5
6C
100
AcDbEntity
  8
0
 62
     0
100
AcDbLine
 10
200.0
 20
20.0
 11
100.0
 21
190.0
  0
LINE
  5
6D
100
AcDbEntity
  8
0
 62
     0
100
AcDbLine
 10
0.0
 20
20.0
 11
200.0
 21
20.0
  0
LINE
  5
6E
100
AcDbEntity
  8
0
 62
     0
100
AcDbLine
 10
52.0
 20
50.0
 11
148.0
 21
50.0
  0
LINE
  5
6F
100
AcDbEntity
  8
0
 62
     0
100
AcDbLine
 10
52.0
 20
50.0
 11
100.0
 21
134.0
  0
LINE
  5
70
100
AcDbEntity
  8
0
 62
     0
100
AcDbLine
 10
100.0
 20
134.0
 11
148.0
 21
50.0
  0
ENDBLK
  5
71
100
AcDbEntity
  8
0
100
AcDbBlockEnd
  0
BLOCK
  5
73
100
AcDbEntity
  8
0
 62
     0
100
AcDbBlockBegin
  2
BUSH
 70
    66
 10
100.0
 20
100.0
 30
0.0
  3
BUSH
  1

  0
ATTDEF
  5
271
100
AcDbEntity
  8
0
100
AcDbText
 10
0.0
 20
0.0
 40
1.0
  1

100
AcDbAttributeDefinition
  3
Name
  2
NAME
 70
     1
  0
ATTDEF
  5
272
100
AcDbEntity
  8
0
100
AcDbText
 10
0.0
 20
0.0
 40
1.0
  1

100
AcDbAttributeDefinition
  3
Feature Code
  2
FEATURE_CODE
 70
     1
  0
ARC
  5
74
100
AcDbEntity
  8
0
 62
     0
100
AcDbCircle
 10
165.0
 20
95.0
 40
25.4951
100
AcDbArc
 50
258.690068
 51
101.309932
  0
ARC
  5
75
100
AcDbEntity
  8
0
 62
     0
100
AcDbCircle
 10
146.5385
 20
48.8462
 40
25.0739
100
AcDbArc
 50
228.731397
 51
57.528808
  0
ARC
  5
76
100
AcDbEntity
  8
0
 62
     0
100
AcDbCircle
 10
99.2857
 20
29.2857
 40
30.7226
100
AcDbArc
 50
197.592425
 51
1.33222
  0
ARC
  5
77
100
AcDbEntity
  8
0
 62
     0
100
AcDbCircle
 10
55.0
 20
45.0
 40
29.1548
100
AcDbArc
 50
149.036243
 51
300.963757
  0
ARC
  5
78
100
AcDbEntity
  8
0
 62
     0
100
AcDbCircle
 10
37.5
 20
87.5
 40
28.5044
100
AcDbArc
 50
127.874984
 51
254.744881
  0
ARC
  5
79
100
AcDbEntity
  8
0
 62
     0
100
AcDbCircle
 10
61.6667
 20
158.3333
 40
21.7307
100
AcDbArc
 50
32.471192
 51
175.601295
  0
ARC
  5
7A
100
AcDbEntity
  8
0
 62
     0
100
AcDbCircle
 10
105.0
 20
165.0
 40
25.4951
100
AcDbArc
 50
11.309932
 51
168.690068
  0
ARC
  5
7B
100
AcDbEntity
  8
0
 62
     0
100
AcDbCircle
 10
145.0
 20
145.0
 40
29.1548
100
AcDbArc
 50
300.963757
 51
120.963757
  0
ARC
  5
7C
100
AcDbEntity
  8
0
 62
     0
100
AcDbCircle
 10
36.8182
 20
132.2727
 40
27.9092
100
AcDbArc
 50
83.453709
 51
232.943472
  0
ENDBLK
  5
7D
100
AcDbEntity
  8
0
100
AcDbBlockEnd
  0
BLOCK
  5
7F
100
AcDbEntity
  8
0
 62
     0
100
AcDbBlockBegin
  2
TREE_1
 70
    66
 10
100.0
 20
100.0
 30
0.0
  3
TREE_1
  1

  0
ATTDEF
  5
273
100
AcDbEntity
  8
0
100
AcDbText
 10
0.0
 20
0.0
 40
1.0
  1

100
AcDbAttributeDefinition
  3
Name
  2
NAME
 70
     1
  0
ATTDEF
  5
274
100
AcDbEntity
  8
0
100
AcDbText
 10
0.0
 20
0.0
 40
1.0
  1

100
AcDbAttributeDefinition
  3
Feature Code
  2
FEATURE_CODE
 70
     1
  0
LINE
  5
80
100
AcDbEntity
  8
0
 62
     0
100
AcDbLine
 10
99.0
 20
150.0
 11
99.0
 21
180.0
  0
ARC
  5
81
100
AcDbEntity
  8
0
 62
     0
100
AcDbCircle
 10
119.5
 20
144.6667
 40
40.8497
100
AcDbArc
 50
7.501957
 51
120.121822
  0
LINE
  5
82
100
AcDbEntity
  8
0
 62
     0
100
AcDbLine
 10
160.0
 20
150.0
 11
130.0
 21
130.0
  0
ARC
  5
83
100
AcDbEntity
  8
0
 62
     0
100
AcDbCircle
 10
141.6667
 20
116.1111
 40
38.5301
100
AcDbArc
 50
317.337306
 51
61.587339
  0
LINE
  5
84
100
AcDbEntity
  8
0
 62
     0
100
AcDbLine
 10
170.0
 20
90.0
 11
140.0
 21
90.0
  0
ARC
  5
85
100
AcDbEntity
  8
0
 62
     0
100
AcDbCircle
 10
153.1818
 20
67.7273
 40
27.9092
100
AcDbArc
 50
263.453709
 51
52.943472
  0
LINE
  5
86
100
AcDbEntity
  8
0
 62
     0
100
AcDbLine
 10
150.0
 20
40.0
 11
130.0
 21
70.0
  0
ARC
  5
87
100
AcDbEntity
  8
0
 62
     0
100
AcDbCircle
 10
120.0
 20
33.3333
 40
30.7318
100
AcDbArc
 50
229.398705
 51
12.528808
  0
LINE
  5
88
100
AcDbEntity
  8
0
 62
     0
100
AcDbLine
 10
100.0
 20
10.0
 11
100.0
 21
50.0
  0
ARC
  5
89
100
AcDbEntity
  8
0
 62
     0
100
AcDbCircle
 10
80.0
 20
33.3333
 40
30.7318
100
AcDbArc
 50
167.471192
 51
310.601295
  0
LINE
  5
8A
100
AcDbEntity
  8
0
 62
     0
100
AcDbLine
 10
50.0
 20
40.0
 11
70.0
 21
60.0
  0
ARC
  5
8B
100
AcDbEntity
  8
0
 62
     0
100
AcDbCircle
 10
43.3333
 20
70.0
 40
30.7318
100
AcDbArc
 50
139.398705
 51
282.528808
  0
LINE
  5
8C
100
AcDbEntity
  8
0
 62
     0
100
AcDbLine
 10
20.0
 20
90.0
 11
50.0
 21
90.0
  0
ARC
  5
8D
100
AcDbEntity
  8
0
 62
     0
100
AcDbCircle
 10
40.7143
 20
116.4286
 40
33.579
100
AcDbArc
 50
91.218875
 51
231.911227
  0
LINE
  5
8E
100
AcDbEntity
  8
0
 62
     0
100
AcDbLine
 10
40.0
 20
150.0
 11
70.0
 21
120.0
  0
ARC
  5
8F
100
AcDbEntity
  8
0
 62
     0
100
AcDbCircle
 10
80.0
 20
145.0
 40
40.3113
100
AcDbArc
 50
60.255119
 51
172.874984
  0
LINE
  5
90
100
AcDbEntity
  8
0
 62
     0
100
AcDbLine
 10
100.0
 20
110.0
 11
100.0
 21
90.0
  0
LINE
  5
91
100
AcDbEntity
  8
0
 62
     0
100
AcDbLine
 10
110.0
 20
100.0
 11
90.0
 21
100.0
  0
ENDBLK
  5
92
100
AcDbEntity
  8
0
100
AcDbBlockEnd
  0
BLOCK
  5
94
100
AcDbEntity
  8
0
 62
     0
100
AcDbBlockBegin
  2
TREE_2
 70
    66
 10
100.0
 20
100.0
 30
0.0
  3
TREE_2
  1

  0
ATTDEF
  5
275
100
AcDbEntity
  8
0
100
AcDbText
 10
0.0
 20
0.0
 40
1.0
  1

100
AcDbAttributeDefinition
  3
Name
  2
NAME
 70
     1
  0
ATTDEF
  5
276
100
AcDbEntity
  8
0
100
AcDbText
 10
0.0
 20
0.0
 40
1.0
  1

100
AcDbAttributeDefinition
  3
Feature Code
  2
FEATURE_CODE
 70
     1
  0
LINE
  5
95
100
AcDbEntity
  8
0
 62
     0
100
AcDbLine
 10
100.0
 20
100.0
 11
100.0
 21
190.0
  0
LINE
  5
96
100
AcDbEntity
  8
0
 62
     0
100
AcDbLine
 10
100.0
 20
170.0
 11
120.0
 21
180.0
  0
LINE
  5
97
100
AcDbEntity
  8
0
 62
     0
100
AcDbLine
 10
100.0
 20
130.0
 11
140.0
 21
150.0
  0
LINE
  5
98
100
AcDbEntity
  8
0
 62
     0
100
AcDbLine
 10
140.0
 20
150.0
 11
150.0
 21
170.0
  0
LINE
  5
99
100
AcDbEntity
  8
0
 62
     0
100
AcDbLine
 10
140.0
 20
150.0
 11
160.0
 21
150.0
  0
LINE
  5
9A
100
AcDbEntity
  8
0
 62
     0
100
AcDbLine
 10
100.0
 20
100.0
 11
170.0
 21
100.0
  0
LINE
  5
9B
100
AcDbEntity
  8
0
 62
     0
100
AcDbLine
 10
170.0
 20
100.0
 11
180.0
 21
110.0
  0
LINE
  5
9C
100
AcDbEntity
  8
0
 62
     0
100
AcDbLine
 10
190.0
 20
90.0
 11
170.0
 21
100.0
  0
LINE
  5
9D
100
AcDbEntity
  8
0
 62
     0
100
AcDbLine
 10
140.0
 20
100.0
 11
150.0
 21
80.0
  0
LINE
  5
9E
100
AcDbEntity
  8
0
 62
     0
100
AcDbLine
 10
120.0
 20
100.0
 11
150.0
 21
130.0
  0
LINE
  5
9F
100
AcDbEntity
  8
0
 62
     0
100
AcDbLine
 10
100.0
 20
100.0
 11
140.0
 21
20.0
  0
LINE
  5
A0
100
AcDbEntity
  8
0
 62
     0
100
AcDbLine
 10
140.0
 20
20.0
 11
170.0
 21
10.0
  0
LINE
  5
A1
100
AcDbEntity
  8
0
 62
     0
100
AcDbLine
 10
120.0
 20
0.0
 11
140.0
 21
20.0
  0
LINE
  5
A2
100
AcDbEntity
  8
0
 62
     0
100
AcDbLine
 10
120.0
 20
60.0
 11
160.0
 21
50.0
  0
LINE
  5
A3
100
AcDbEntity
  8
0
 62
     0
100
AcDbLine
 10
130.0
 20
40.0
 11
110.0
 21
20.0
  0
LINE
  5
A4
100
AcDbEntity
  8
0
 62
     0
100
AcDbLine
 10
100.0
 20
100.0
 11
90.0
 21
50.0
  0
LINE
  5
A5
100
AcDbEntity
  8
0
 62
     0
100
AcDbLine
 10
90.0
 20
50.0
 11
70.0
 21
30.0
  0
LINE
  5
A6
100
AcDbEntity
  8
0
 62
     0
100
AcDbLine
 10
90.0
 20
20.0
 11
90.0
 21
50.0
  0
LINE
  5
A7
100
AcDbEntity
  8
0
 62
     0
100
AcDbLine
 10
100.0
 20
100.0
 11
0.0
 21
20.0
  0
LINE
  5
A8
100
AcDbEntity
  8
0
 62
     0
100
AcDbLine
 10
37.0
 20
50.0
 11
5.0
 21
42.0
  0
LINE
  5
A9
100
AcDbEntity
  8
0
 62
     0
100
AcDbLine
 10
70.0
 20
76.0
 11
60.0
 21
50.0
  0
LINE
  5
AA
100
AcDbEntity
  8
0
 62
     0
100
AcDbLine
 10
40.0
 20
50.0
 11
40.0
 21
10.0
  0
LINE
  5
AB
100
AcDbEntity
  8
0
 62
     0
100
AcDbLine
 10
100.0
 20
100.0
 11
20.0
 21
150.0
  0
LINE
  5
AC
100
AcDbEntity
  8
0
 62
     0
100
AcDbLine
 10
20.0
 20
150.0
 11
0.0
 21
150.0
  0
LINE
  5
AD
100
AcDbEntity
  8
0
 62
     0
100
AcDbLine
 10
20.0
 20
150.0
 11
20.0
 21
180.0
  0
LINE
  5
AE
100
AcDbEntity
  8
0
 62
     0
100
AcDbLine
 10
50.0
 20
130.0
 11
60.0
 21
170.0
  0
LINE
  5
AF
100
AcDbEntity
  8
0
 62
     0
100
AcDbLine
 10
60.0
 20
170.0
 11
50.0
 21
180.0
  0
LINE
  5
B0
100
AcDbEntity
  8
0
 62
     0
100
AcDbLine
 10
70.0
 20
190.0
 11
60.0
 21
170.0
  0
LINE
  5
B1
100
AcDbEntity
  8
0
 62
     0
100
AcDbLine
 10
55.0
 20
150.0
 11
70.0
 21
156.0
  0
LINE
  5
B2
100
AcDbEntity
  8
0
 62
     0
100
AcDbLine
 10
70.0
 20
120.0
 11
30.0
 21
90.0
  0
LINE
  5
B3
100
AcDbEntity
  8
0
 62
     0
100
AcDbLine
 10
30.0
 20
90.0
 11
10.0
 21
100.0
  0
LINE
  5
B4
100
AcDbEntity
  8
0
 62
     0
100
AcDbLine
 10
20.0
 20
60.0
 11
30.0
 21
90.0
  0
LINE
  5
B5
100
AcDbEntity
  8
0
 62
     0
100
AcDbLine
 10
50.0
 20
105.0
 11
30.0
 21
120.0
  0
LINE
  5
B6
100
AcDbEntity
  8
0
 62
     0
100
AcDbLine
 10
100.0
 20
150.0
 11
80.0
 21
170.0
  0
ENDBLK
  5
B7
100
AcDbEntity
  8
0
100
AcDbBlockEnd
  0
BLOCK
  5
B9
100
AcDbEntity
  8
0
 62
     0
100
AcDbBlockBegin
  2
VALVE
 70
    66
 10
100.0
 20
100.0
 30
0.0
  3
VALVE
  1

  0
ATTDEF
  5
277
100
AcDbEntity
  8
0
100
AcDbText
 10
0.0
 20
0.0
 40
1.0
  1

100
AcDbAttributeDefinition
  3
Name
  2
NAME
 70
     1
  0
ATTDEF
  5
278
100
AcDbEntity
  8
0
100
AcDbText
 10
0.0
 20
0.0
 40
1.0
  1

100
AcDbAttributeDefinition
  3
Feature Code
  2
FEATURE_CODE
 70
     1
  0
LINE
  5
BA
100
AcDbEntity
  8
0
 62
     0
100
AcDbLine
 10
0.0
 20
160.0
 11
200.0
 21
40.0
  0
LINE
  5
BB
100
AcDbEntity
  8
0
 62
     0
100
AcDbLine
 10
200.0
 20
40.0
 11
200.0
 21
160.0
  0
LINE
  5
BC
100
AcDbEntity
  8
0
 62
     0
100
AcDbLine
 10
200.0
 20
160.0
 11
0.0
 21
40.0
  0
LINE
  5
BD
100
AcDbEntity
  8
0
 62
     0
100
AcDbLine
 10
0.0
 20
40.0
 11
0.0
 21
160.0
  0
ENDBLK
  5
BE
100
AcDbEntity
  8
0
100
AcDbBlockEnd
  0
BLOCK
  5
C0
100
AcDbEntity
  8
0
 62
     0
100
AcDbBlockBegin
  2
IRON_GRATE
 70
    66
 10
100.0
 20
100.0
 30
0.0
  3
IRON_GRATE
  1

  0
ATTDEF
  5
279
100
AcDbEntity
  8
0
100
AcDbText
 10
0.0
 20
0.0
 40
1.0
  1

100
AcDbAttributeDefinition
  3
Name
  2
NAME
 70
     1
  0
ATTDEF
  5
27A
100
AcDbEntity
  8
0
100
AcDbText
 10
0.0
 20
0.0
 40
1.0
  1

100
AcDbAttributeDefinition
  3
Feature Code
  2
FEATURE_CODE
 70
     1
  0
LINE
  5
C1
100
AcDbEntity
  8
0
 62
     0
100
AcDbLine
 10
0.0
 20
160.0
 11
200.0
 21
160.0
  0
LINE
  5
C2
100
AcDbEntity
  8
0
 62
     0
100
AcDbLine
 10
200.0
 20
130.0
 11
0.0
 21
130.0
  0
LINE
  5
C3
100
AcDbEntity
  8
0
 62
     0
100
AcDbLine
 10
0.0
 20
100.0
 11
200.0
 21
100.0
  0
LINE
  5
C4
100
AcDbEntity
  8
0
 62
     0
100
AcDbLine
 10
200.0
 20
70.0
 11
0.0
 21
70.0
  0
LINE
  5
C5
100
AcDbEntity
  8
0
 62
     0
100
AcDbLine
 10
0.0
 20
40.0
 11
300.0
 21
40.0
  0
LINE
  5
C6
100
AcDbEntity
  8
0
 62
     0
100
AcDbLine
 10
0.0
 20
160.0
 11
0.0
 21
40.0
  0
LINE
  5
C7
100
AcDbEntity
  8
0
 62
     0
100
AcDbLine
 10
200.0
 20
160.0
 11
200.0
 21
40.0
  0
ENDBLK
  5
C8
100
AcDbEntity
  8
0
100
AcDbBlockEnd
  0
BLOCK
  5
CA
100
AcDbEntity
  8
0
 62
     0
100
AcDbBlockBegin
  2
HYDRANT
 70
    66
 10
100.0
 20
0.0
 30
0.0
  3
HYDRANT
  1

  0
ATTDEF
  5
27B
100
AcDbEntity
  8
0
100
AcDbText
 10
0.0
 20
0.0
 40
1.0
  1

100
AcDbAttributeDefinition
  3
Name
  2
NAME
 70
     1
  0
ATTDEF
  5
27C
100
AcDbEntity
  8
0
100
AcDbText
 10
0.0
 20
0.0
 40
1.0
  1

100
AcDbAttributeDefinition
  3
Feature Code
  2
FEATURE_CODE
 70
     1
  0
ARC
  5
CB
100
AcDbEntity
  8
0
 62
     0
100
AcDbCircle
 10
100.0
 20
170.0
 40
30.0
100
AcDbArc
 50
270.0
 51
90.0
  0
ARC
  5
CC
100
AcDbEntity
  8
0
 62
     0
100
AcDbCircle
 10
100.0
 20
170.0
 40
30.0
100
AcDbArc
 50
90.0
 51
270.0
  0
LINE
  5
CD
100
AcDbEntity
  8
0
 62
     0
100
AcDbLine
 10
74.0
 20
185.0
 11
74.0
 21
156.0
  0
LINE
  5
CE
100
AcDbEntity
  8
0
 62
     0
100
AcDbLine
 10
74.0
 20
156.0
 11
80.0
 21
192.0
  0
LINE
  5
CF
100
AcDbEntity
  8
0
 62
     0
100
AcDbLine
 10
80.0
 20
192.0
 11
80.0
 21
149.0
  0
LINE
  5
D0
100
AcDbEntity
  8
0
 62
     0
100
AcDbLine
 10
80.0
 20
149.0
 11
85.0
 21
196.0
  0
LINE
  5
D1
100
AcDbEntity
  8
0
 62
     0
100
AcDbLine
 10
85.0
 20
196.0
 11
85.0
 21
145.0
  0
LINE
  5
D2
100
AcDbEntity
  8
0
 62
     0
100
AcDbLine
 10
85.0
 20
145.0
 11
90.0
 21
198.0
  0
LINE
  5
D3
100
AcDbEntity
  8
0
 62
     0
100
AcDbLine
 10
90.0
 20
198.0
 11
90.0
 21
142.0
  0
LINE
  5
D4
100
AcDbEntity
  8
0
 62
     0
100
AcDbLine
 10
90.0
 20
142.0
 11
95.0
 21
200.0
  0
LINE
  5
D5
100
AcDbEntity
  8
0
 62
     0
100
AcDbLine
 10
95.0
 20
200.0
 11
95.0
 21
141.0
  0
LINE
  5
D6
100
AcDbEntity
  8
0
 62
     0
100
AcDbLine
 10
95.0
 20
141.0
 11
100.0
 21
200.0
  0
LINE
  5
D7
100
AcDbEntity
  8
0
 62
     0
100
AcDbLine
 10
100.0
 20
200.0
 11
100.0
 21
141.0
  0
LINE
  5
D8
100
AcDbEntity
  8
0
 62
     0
100
AcDbLine
 10
100.0
 20
141.0
 11
105.0
 21
200.0
  0
LINE
  5
D9
100
AcDbEntity
  8
0
 62
     0
100
AcDbLine
 10
105.0
 20
200.0
 11
105.0
 21
141.0
  0
LINE
  5
DA
100
AcDbEntity
  8
0
 62
     0
100
AcDbLine
 10
105.0
 20
141.0
 11
110.0
 21
198.0
  0
LINE
  5
DB
100
AcDbEntity
  8
0
 62
     0
100
AcDbLine
 10
110.0
 20
198.0
 11
110.0
 21
143.0
  0
LINE
  5
DC
100
AcDbEntity
  8
0
 62
     0
100
AcDbLine
 10
110.0
 20
143.0
 11
115.0
 21
196.0
  0
LINE
  5
DD
100
AcDbEntity
  8
0
 62
     0
100
AcDbLine
 10
115.0
 20
196.0
 11
115.0
 21
145.0
  0
LINE
  5
DE
100
AcDbEntity
  8
0
 62
     0
100
AcDbLine
 10
115.0
 20
145.0
 11
120.0
 21
191.0
  0
LINE
  5
DF
100
AcDbEntity
  8
0
 62
     0
100
AcDbLine
 10
120.0
 20
191.0
 11
120.0
 21
149.0
  0
LINE
  5
E0
100
AcDbEntity
  8
0
 62
     0
100
AcDbLine
 10
120.0
 20
149.0
 11
125.0
 21
185.0
  0
LINE
  5
E1
100
AcDbEntity
  8
0
 62
     0
100
AcDbLine
 10
125.0
 20
185.0
 11
125.0
 21
155.0
  0
LINE
  5
E2
100
AcDbEntity
  8
0
 62
     0
100
AcDbLine
 10
100.0
 20
140.0
 11
100.0
 21
0.0
  0
LINE
  5
E3
100
AcDbEntity
  8
0
 62
     0
100
AcDbLine
 10
77.0
 20
191.0
 11
20.0
 21
140.0
  0
LINE
  5
E4
100
AcDbEntity
  8
0
 62
     0
100
AcDbLine
 10
122.0
 20
191.0
 11
180.0
 21
140.0
  0
ENDBLK
  5
E5
100
AcDbEntity
  8
0
100
AcDbBlockEnd
  0
BLOCK
  5
E7
100
AcDbEntity
  8
0
 62
     0
100
AcDbBlockBegin
  2
SIGN
 70
    66
 10
100.0
 20
90.0
 30
0.0
  3
SIGN
  1

  0
ATTDEF
  5
27D
100
AcDbEntity
  8
0
100
AcDbText
 10
0.0
 20
0.0
 40
1.0
  1

100
AcDbAttributeDefinition
  3
Name
  2
NAME
 70
     1
  0
ATTDEF
  5
27E
100
AcDbEntity
  8
0
100
AcDbText
 10
0.0
 20
0.0
 40
1.0
  1

100
AcDbAttributeDefinition
  3
Feature Code
  2
FEATURE_CODE
 70
     1
  0
LINE
  5
E8
100
AcDbEntity
  8
0
 62
     0
100
AcDbLine
 10
0.0
 20
130.0
 11
200.0
 21
130.0
  0
ARC
  5
E9
100
AcDbEntity
  8
0
 62
     0
100
AcDbCircle
 10
100.0
 20
90.0
 40
40.0
100
AcDbArc
 50
270.0
 51
90.0
  0
ARC
  5
EA
100
AcDbEntity
  8
0
 62
     0
100
AcDbCircle
 10
100.0
 20
90.0
 40
40.0
100
AcDbArc
 50
90.0
 51
270.0
  0
ARC
  5
EB
100
AcDbEntity
  8
0
 62
     0
100
AcDbCircle
 10
100.0
 20
90.0
 40
25.0
100
AcDbArc
 50
270.0
 51
90.0
  0
ARC
  5
EC
100
AcDbEntity
  8
0
 62
     0
100
AcDbCircle
 10
100.0
 20
90.0
 40
25.0
100
AcDbArc
 50
90.0
 51
270.0
  0
ARC
  5
ED
100
AcDbEntity
  8
0
 62
     0
100
AcDbCircle
 10
100.0
 20
90.0
 40
10.0
100
AcDbArc
 50
90.0
 51
270.0
  0
ARC
  5
EE
100
AcDbEntity
  8
0
 62
     0
100
AcDbCircle
 10
100.0
 20
90.0
 40
10.0
100
AcDbArc
 50
270.0
 51
90.0
  0
ENDBLK
  5
EF
100
AcDbEntity
  8
0
100
AcDbBlockEnd
  0
BLOCK
  5
F1
100
AcDbEntity
  8
0
 62
     0
100
AcDbBlockBegin
  2
CROSS_CIRCLE
 70
    66
 10
100.0
 20
100.0
 30
0.0
  3
CROSS_CIRCLE
  1

  0
ATTDEF
  5
27F
100
AcDbEntity
  8
0
100
AcDbText
 10
0.0
 20
0.0
 40
1.0
  1

100
AcDbAttributeDefinition
  3
Name
  2
NAME
 70
     1
  0
ATTDEF
  5
280
100
AcDbEntity
  8
0
100
AcDbText
 10
0.0
 20
0.0
 40
1.0
  1

100
AcDbAttributeDefinition
  3
Feature Code
  2
FEATURE_CODE
 70
     1
  0
LINE
  5
F2
100
AcDbEntity
  8
0
 62
     0
100
AcDbLine
 10
0.0
 20
100.0
 11
200.0
 21
100.0
  0
LINE
  5
F3
100
AcDbEntity
  8
0
 62
     0
100
AcDbLine
 10
100.0
 20
0.0
 11
100.0
 21
200.0
  0
ARC
  5
F4
100
AcDbEntity
  8
0
 62
     0
100
AcDbCircle
 10
100.0
 20
100.0
 40
90.0
100
AcDbArc
 50
0.0
 51
180.0
  0
ARC
  5
F5
100
AcDbEntity
  8
0
 62
     0
100
AcDbCircle
 10
100.0
 20
100.0
 40
90.0
100
AcDbArc
 50
180.0
 51
0.0
  0
ENDBLK
  5
F6
100
AcDbEntity
  8
0
100
AcDbBlockEnd
  0
BLOCK
  5
F8
100
AcDbEntity
  8
0
 62
     0
100
AcDbBlockBegin
  2
PP
 70
    66
 10
100.0
 20
100.0
 30
0.0
  3
PP
  1

  0
ATTDEF
  5
281
100
AcDbEntity
  8
0
100
AcDbText
 10
0.0
 20
0.0
 40
1.0
  1

100
AcDbAttributeDefinition
  3
Name
  2
NAME
 70
     1
  0
ATTDEF
  5
282
100
AcDbEntity
  8
0
100
AcDbText
 10
0.0
 20
0.0
 40
1.0
  1

100
AcDbAttributeDefinition
  3
Feature Code
  2
FEATURE_CODE
 70
     1
  0
LINE
  5
F9
100
AcDbEntity
  8
0
 62
     0
100
AcDbLine
 10
100.0
 20
200.0
 11
100.0
 21
186.0
  0
LINE
  5
FA
100
AcDbEntity
  8
0
 62
     0
100
AcDbLine
 10
100.0
 20
179.0
 11
100.0
 21
165.0
  0
LINE
  5
FB
100
AcDbEntity
  8
0
 62
     0
100
AcDbLine
 10
100.0
 20
158.0
 11
100.0
 21
144.0
  0
LINE
  5
FC
100
AcDbEntity
  8
0
 62
     0
100
AcDbLine
 10
100.0
 20
126.0
 11
100.0
 21
137.0
  0
LINE
  5
FD
100
AcDbEntity
  8
0
 62
     0
100
AcDbLine
 10
100.0
 20
74.0
 11
100.0
 21
63.0
  0
LINE
  5
FE
100
AcDbEntity
  8
0
 62
     0
100
AcDbLine
 10
100.0
 20
56.0
 11
100.0
 21
42.0
  0
LINE
  5
FF
100
AcDbEntity
  8
0
 62
     0
100
AcDbLine
 10
100.0
 20
35.0
 11
100.0
 21
21.0
  0
LINE
  5
100
100
AcDbEntity
  8
0
 62
     0
100
AcDbLine
 10
100.0
 20
14.0
 11
100.0
 21
0.0
  0
LINE
  5
101
100
AcDbEntity
  8
0
 62
     0
100
AcDbLine
 10
74.0
 20
100.0
 11
63.0
 21
100.0
  0
LINE
  5
102
100
AcDbEntity
  8
0
 62
     0
100
AcDbLine
 10
56.0
 20
100.0
 11
42.0
 21
100.0
  0
LINE
  5
103
100
AcDbEntity
  8
0
 62
     0
100
AcDbLine
 10
126.0
 20
100.0
 11
137.0
 21
100.0
  0
LINE
  5
104
100
AcDbEntity
  8
0
 62
     0
100
AcDbLine
 10
144.0
 20
100.0
 11
158.0
 21
100.0
  0
ARC
  5
105
100
AcDbEntity
  8
0
 62
     0
100
AcDbCircle
 10
100.0
 20
100.0
 40
26.4197
100
AcDbArc
 50
75.0
 51
105.0
  0
ARC
  5
106
100
AcDbEntity
  8
0
 62
     0
100
AcDbCircle
 10
100.0
 20
100.0
 40
26.4197
100
AcDbArc
 50
28.5
 51
61.5
  0
ARC
  5
107
100
AcDbEntity
  8
0
 62
     0
100
AcDbCircle
 10
100.0
 20
100.0
 40
26.4197
100
AcDbArc
 50
345.0
 51
15.0
  0
ARC
  5
108
100
AcDbEntity
  8
0
 62
     0
100
AcDbCircle
 10
100.0
 20
100.0
 40
26.4197
100
AcDbArc
 50
298.5
 51
331.5
  0
ARC
  5
109
100
AcDbEntity
  8
0
 62
     0
100
AcDbCircle
 10
100.0
 20
100.0
 40
26.4197
100
AcDbArc
 50
255.0
 51
285.0
  0
ARC
  5
10A
100
AcDbEntity
  8
0
 62
     0
100
AcDbCircle
 10
100.0
 20
100.0
 40
26.4197
100
AcDbArc
 50
208.5
 51
241.5
  0
ARC
  5
10B
100
AcDbEntity
  8
0
 62
     0
100
AcDbCircle
 10
100.0
 20
100.0
 40
26.4197
100
AcDbArc
 50
165.0
 51
195.0
  0
ARC
  5
10C
100
AcDbEntity
  8
0
 62
     0
100
AcDbCircle
 10
100.0
 20
100.0
 40
26.4197
100
AcDbArc
 50
118.5
 51
151.5
  0
ENDBLK
  5
10D
100
AcDbEntity
  8
0
100
AcDbBlockEnd
  0
BLOCK
  5
10F
100
AcDbEntity
  8
0
 62
     0
100
AcDbBlockBegin
  2
SOLID_CIRCLE
 70
    66
 10
100.0
 20
100.0
 30
0.0
  3
SOLID_CIRCLE
  1

  0
ATTDEF
  5
283
100
AcDbEntity
  8
0
100
AcDbText
 10
0.0
 20
0.0
 40
1.0
  1

100
AcDbAttributeDefinition
  3
Name
  2
NAME
 70
     1
  0
ATTDEF
  5
284
100
AcDbEntity
  8
0
100
AcDbText
 10
0.0
 20
0.0
 40
1.0
  1

100
AcDbAttributeDefinition
  3
Feature Code
  2
FEATURE_CODE
 70
     1
  0
ARC
  5
110
100
AcDbEntity
  8
0
 62
     0
100
AcDbCircle
 10
100.0
 20
100.0
 40
100.0
100
AcDbArc
 50
0.0
 51
180.0
  0
ARC
  5
111
100
AcDbEntity
  8
0
 62
     0
100
AcDbCircle
 10
100.0
 20
100.0
 40
100.0
100
AcDbArc
 50
180.0
 51
0.0
  0
LINE
  5
112
100
AcDbEntity
  8
0
 62
     0
100
AcDbLine
 10
11.0
 20
64.0
 11
11.0
 21
133.0
  0
LINE
  5
113
100
AcDbEntity
  8
0
 62
     0
100
AcDbLine
 10
11.0
 20
133.0
 11
21.0
 21
154.0
  0
LINE
  5
114
100
AcDbEntity
  8
0
 62
     0
100
AcDbLine
 10
21.0
 20
154.0
 11
21.0
 21
45.0
  0
LINE
  5
115
100
AcDbEntity
  8
0
 62
     0
100
AcDbLine
 10
21.0
 20
45.0
 11
32.0
 21
32.0
  0
LINE
  5
116
100
AcDbEntity
  8
0
 62
     0
100
AcDbLine
 10
32.0
 20
32.0
 11
32.0
 21
166.0
  0
LINE
  5
117
100
AcDbEntity
  8
0
 62
     0
100
AcDbLine
 10
32.0
 20
166.0
 11
42.0
 21
176.0
  0
LINE
  5
118
100
AcDbEntity
  8
0
 62
     0
100
AcDbLine
 10
42.0
 20
176.0
 11
42.0
 21
24.0
  0
LINE
  5
119
100
AcDbEntity
  8
0
 62
     0
100
AcDbLine
 10
42.0
 20
24.0
 11
53.0
 21
19.0
  0
LINE
  5
11A
100
AcDbEntity
  8
0
 62
     0
100
AcDbLine
 10
53.0
 20
19.0
 11
53.0
 21
180.0
  0
LINE
  5
11B
100
AcDbEntity
  8
0
 62
     0
100
AcDbLine
 10
53.0
 20
180.0
 11
63.0
 21
187.0
  0
LINE
  5
11C
100
AcDbEntity
  8
0
 62
     0
100
AcDbLine
 10
63.0
 20
187.0
 11
63.0
 21
14.0
  0
LINE
  5
11D
100
AcDbEntity
  8
0
 62
     0
100
AcDbLine
 10
63.0
 20
14.0
 11
74.0
 21
8.0
  0
LINE
  5
11E
100
AcDbEntity
  8
0
 62
     0
100
AcDbLine
 10
74.0
 20
8.0
 11
74.0
 21
192.0
  0
LINE
  5
11F
100
AcDbEntity
  8
0
 62
     0
100
AcDbLine
 10
74.0
 20
192.0
 11
84.0
 21
194.0
  0
LINE
  5
120
100
AcDbEntity
  8
0
 62
     0
100
AcDbLine
 10
84.0
 20
194.0
 11
84.0
 21
6.0
  0
LINE
  5
121
100
AcDbEntity
  8
0
 62
     0
100
AcDbLine
 10
84.0
 20
6.0
 11
95.0
 21
5.0
  0
LINE
  5
122
100
AcDbEntity
  8
0
 62
     0
100
AcDbLine
 10
95.0
 20
5.0
 11
95.0
 21
196.0
  0
LINE
  5
123
100
AcDbEntity
  8
0
 62
     0
100
AcDbLine
 10
95.0
 20
196.0
 11
105.0
 21
196.0
  0
LINE
  5
124
100
AcDbEntity
  8
0
 62
     0
100
AcDbLine
 10
105.0
 20
196.0
 11
105.0
 21
5.0
  0
LINE
  5
125
100
AcDbEntity
  8
0
 62
     0
100
AcDbLine
 10
105.0
 20
5.0
 11
116.0
 21
6.0
  0
LINE
  5
126
100
AcDbEntity
  8
0
 62
     0
100
AcDbLine
 10
116.0
 20
6.0
 11
116.0
 21
193.0
  0
LINE
  5
127
100
AcDbEntity
  8
0
 62
     0
100
AcDbLine
 10
116.0
 20
193.0
 11
126.0
 21
191.0
  0
LINE
  5
128
100
AcDbEntity
  8
0
 62
     0
100
AcDbLine
 10
126.0
 20
191.0
 11
126.0
 21
8.0
  0
LINE
  5
129
100
AcDbEntity
  8
0
 62
     0
100
AcDbLine
 10
126.0
 20
8.0
 11
137.0
 21
13.0
  0
LINE
  5
12A
100
AcDbEntity
  8
0
 62
     0
100
AcDbLine
 10
137.0
 20
13.0
 11
137.0
 21
187.0
  0
LINE
  5
12B
100
AcDbEntity
  8
0
 62
     0
100
AcDbLine
 10
137.0
 20
187.0
 11
147.0
 21
181.0
  0
LINE
  5
12C
100
AcDbEntity
  8
0
 62
     0
100
AcDbLine
 10
147.0
 20
181.0
 11
147.0
 21
18.0
  0
LINE
  5
12D
100
AcDbEntity
  8
0
 62
     0
100
AcDbLine
 10
147.0
 20
18.0
 11
158.0
 21
24.0
  0
LINE
  5
12E
100
AcDbEntity
  8
0
 62
     0
100
AcDbLine
 10
158.0
 20
24.0
 11
158.0
 21
176.0
  0
LINE
  5
12F
100
AcDbEntity
  8
0
 62
     0
100
AcDbLine
 10
158.0
 20
176.0
 11
168.0
 21
165.0
  0
LINE
  5
130
100
AcDbEntity
  8
0
 62
     0
100
AcDbLine
 10
168.0
 20
165.0
 11
168.0
 21
33.0
  0
LINE
  5
131
100
AcDbEntity
  8
0
 62
     0
100
AcDbLine
 10
168.0
 20
33.0
 11
179.0
 21
47.0
  0
LINE
  5
132
100
AcDbEntity
  8
0
 62
     0
100
AcDbLine
 10
179.0
 20
47.0
 11
179.0
 21
152.0
  0
LINE
  5
133
100
AcDbEntity
  8
0
 62
     0
100
AcDbLine
 10
179.0
 20
152.0
 11
189.0
 21
134.0
  0
LINE
  5
134
100
AcDbEntity
  8
0
 62
     0
100
AcDbLine
 10
189.0
 20
67.0
 11
189.0
 21
134.0
  0
ENDBLK
  5
135
100
AcDbEntity
  8
0
100
AcDbBlockEnd
  0
BLOCK
  5
137
100
AcDbEntity
  8
0
 62
     0
100
AcDbBlockBegin
  2
SOLID_DOUBLE_CIRCLE
 70
    66
 10
100.0
 20
100.0
 30
0.0
  3
SOLID_DOUBLE_CIRCLE
  1

  0
ATTDEF
  5
285
100
AcDbEntity
  8
0
100
AcDbText
 10
0.0
 20
0.0
 40
1.0
  1

100
AcDbAttributeDefinition
  3
Name
  2
NAME
 70
     1
  0
ATTDEF
  5
286
100
AcDbEntity
  8
0
100
AcDbText
 10
0.0
 20
0.0
 40
1.0
  1

100
AcDbAttributeDefinition
  3
Feature Code
  2
FEATURE_CODE
 70
     1
  0
ARC
  5
138
100
AcDbEntity
  8
0
 62
     0
100
AcDbCircle
 10
100.0
 20
100.0
 40
100.0
100
AcDbArc
 50
0.0
 51
180.0
  0
ARC
  5
139
100
AcDbEntity
  8
0
 62
     0
100
AcDbCircle
 10
100.0
 20
100.0
 40
100.0
100
AcDbArc
 50
180.0
 51
0.0
  0
ARC
  5
13A
100
AcDbEntity
  8
0
 62
     0
100
AcDbCircle
 10
100.0
 20
100.0
 40
60.0
100
AcDbArc
 50
180.0
 51
0.0
  0
ARC
  5
13B
100
AcDbEntity
  8
0
 62
     0
100
AcDbCircle
 10
100.0
 20
100.0
 40
60.0
100
AcDbArc
 50
0.0
 51
180.0
  0
LINE
  5
13C
100
AcDbEntity
  8
0
 62
     0
100
AcDbLine
 10
47.0
 20
122.0
 11
47.0
 21
79.0
  0
LINE
  5
13D
100
AcDbEntity
  8
0
 62
     0
100
AcDbLine
 10
47.0
 20
79.0
 11
58.0
 21
63.0
  0
LINE
  5
13E
100
AcDbEntity
  8
0
 62
     0
100
AcDbLine
 10
58.0
 20
63.0
 11
58.0
 21
137.0
  0
LINE
  5
13F
100
AcDbEntity
  8
0
 62
     0
100
AcDbLine
 10
58.0
 20
137.0
 11
68.0
 21
147.0
  0
LINE
  5
140
100
AcDbEntity
  8
0
 62
     0
100
AcDbLine
 10
68.0
 20
147.0
 11
68.0
 21
55.0
  0
LINE
  5
141
100
AcDbEntity
  8
0
 62
     0
100
AcDbLine
 10
68.0
 20
55.0
 11
79.0
 21
50.0
  0
LINE
  5
142
100
AcDbEntity
  8
0
 62
     0
100
AcDbLine
 10
79.0
 20
50.0
 11
79.0
 21
152.0
  0
LINE
  5
143
100
AcDbEntity
  8
0
 62
     0
100
AcDbLine
 10
79.0
 20
152.0
 11
89.0
 21
155.0
  0
LINE
  5
144
100
AcDbEntity
  8
0
 62
     0
100
AcDbLine
 10
89.0
 20
155.0
 11
89.0
 21
47.0
  0
LINE
  5
145
100
AcDbEntity
  8
0
 62
     0
100
AcDbLine
 10
89.0
 20
47.0
 11
100.0
 21
45.0
  0
LINE
  5
146
100
AcDbEntity
  8
0
 62
     0
100
AcDbLine
 10
100.0
 20
45.0
 11
100.0
 21
156.0
  0
LINE
  5
147
100
AcDbEntity
  8
0
 62
     0
100
AcDbLine
 10
100.0
 20
156.0
 11
111.0
 21
155.0
  0
LINE
  5
148
100
AcDbEntity
  8
0
 62
     0
100
AcDbLine
 10
111.0
 20
155.0
 11
111.0
 21
47.0
  0
LINE
  5
149
100
AcDbEntity
  8
0
 62
     0
100
AcDbLine
 10
111.0
 20
47.0
 11
121.0
 21
51.0
  0
LINE
  5
14A
100
AcDbEntity
  8
0
 62
     0
100
AcDbLine
 10
121.0
 20
51.0
 11
121.0
 21
151.0
  0
LINE
  5
14B
100
AcDbEntity
  8
0
 62
     0
100
AcDbLine
 10
121.0
 20
151.0
 11
132.0
 21
145.0
  0
LINE
  5
14C
100
AcDbEntity
  8
0
 62
     0
100
AcDbLine
 10
132.0
 20
145.0
 11
132.0
 21
55.0
  0
LINE
  5
14D
100
AcDbEntity
  8
0
 62
     0
100
AcDbLine
 10
132.0
 20
55.0
 11
142.0
 21
65.0
  0
LINE
  5
14E
100
AcDbEntity
  8
0
 62
     0
100
AcDbLine
 10
142.0
 20
65.0
 11
142.0
 21
136.0
  0
LINE
  5
14F
100
AcDbEntity
  8
0
 62
     0
100
AcDbLine
 10
142.0
 20
136.0
 11
153.0
 21
117.0
  0
LINE
  5
150
100
AcDbEntity
  8
0
 62
     0
100
AcDbLine
 10
153.0
 20
117.0
 11
153.0
 21
82.0
  0
ENDBLK
  5
151
100
AcDbEntity
  8
0
100
AcDbBlockEnd
  0
BLOCK
  5
153
100
AcDbEntity
  8
0
 62
     0
100
AcDbBlockBegin
  2
SOLID_BOX
 70
    66
 10
100.0
 20
100.0
 30
0.0
  3
SOLID_BOX
  1

  0
ATTDEF
  5
287
100
AcDbEntity
  8
0
100
AcDbText
 10
0.0
 20
0.0
 40
1.0
  1

100
AcDbAttributeDefinition
  3
Name
  2
NAME
 70
     1
  0
ATTDEF
  5
288
100
AcDbEntity
  8
0
100
AcDbText
 10
0.0
 20
0.0
 40
1.0
  1

100
AcDbAttributeDefinition
  3
Feature Code
  2
FEATURE_CODE
 70
     1
  0
LINE
  5
154
100
AcDbEntity
  8
0
 62
     0
100
AcDbLine
 10
0.0
 20
200.0
 11
0.0
 21
0.0
  0
LINE
  5
155
100
AcDbEntity
  8
0
 62
     0
100
AcDbLine
 10
0.0
 20
0.0
 11
200.0
 21
0.0
  0
LINE
  5
156
100
AcDbEntity
  8
0
 62
     0
100
AcDbLine
 10
200.0
 20
0.0
 11
200.0
 21
200.0
  0
LINE
  5
157
100
AcDbEntity
  8
0
 62
     0
100
AcDbLine
 10
200.0
 20
200.0
 11
0.0
 21
200.0
  0
LINE
  5
158
100
AcDbEntity
  8
0
 62
     0
100
AcDbLine
 10
11.0
 20
200.0
 11
11.0
 21
11.0
  0
LINE
  5
159
100
AcDbEntity
  8
0
 62
     0
100
AcDbLine
 10
11.0
 20
11.0
 11
189.0
 21
11.0
  0
LINE
  5
15A
100
AcDbEntity
  8
0
 62
     0
100
AcDbLine
 10
189.0
 20
11.0
 11
189.0
 21
189.0
  0
LINE
  5
15B
100
AcDbEntity
  8
0
 62
     0
100
AcDbLine
 10
189.0
 20
189.0
 11
21.0
 21
189.0
  0
LINE
  5
15C
100
AcDbEntity
  8
0
 62
     0
100
AcDbLine
 10
21.0
 20
189.0
 11
21.0
 21
21.0
  0
LINE
  5
15D
100
AcDbEntity
  8
0
 62
     0
100
AcDbLine
 10
21.0
 20
21.0
 11
179.0
 21
21.0
  0
LINE
  5
15E
100
AcDbEntity
  8
0
 62
     0
100
AcDbLine
 10
179.0
 20
21.0
 11
179.0
 21
179.0
  0
LINE
  5
15F
100
AcDbEntity
  8
0
 62
     0
100
AcDbLine
 10
179.0
 20
179.0
 11
32.0
 21
179.0
  0
LINE
  5
160
100
AcDbEntity
  8
0
 62
     0
100
AcDbLine
 10
32.0
 20
179.0
 11
32.0
 21
32.0
  0
LINE
  5
161
100
AcDbEntity
  8
0
 62
     0
100
AcDbLine
 10
32.0
 20
32.0
 11
168.0
 21
32.0
  0
LINE
  5
162
100
AcDbEntity
  8
0
 62
     0
100
AcDbLine
 10
168.0
 20
32.0
 11
168.0
 21
168.0
  0
LINE
  5
163
100
AcDbEntity
  8
0
 62
     0
100
AcDbLine
 10
168.0
 20
168.0
 11
42.0
 21
168.0
  0
LINE
  5
164
100
AcDbEntity
  8
0
 62
     0
100
AcDbLine
 10
42.0
 20
168.0
 11
42.0
 21
42.0
  0
LINE
  5
165
100
AcDbEntity
  8
0
 62
     0
100
AcDbLine
 10
42.0
 20
42.0
 11
158.0
 21
42.0
  0
LINE
  5
166
100
AcDbEntity
  8
0
 62
     0
100
AcDbLine
 10
158.0
 20
42.0
 11
158.0
 21
158.0
  0
LINE
  5
167
100
AcDbEntity
  8
0
 62
     0
100
AcDbLine
 10
158.0
 20
158.0
 11
53.0
 21
158.0
  0
LINE
  5
168
100
AcDbEntity
  8
0
 62
     0
100
AcDbLine
 10
53.0
 20
158.0
 11
53.0
 21
53.0
  0
LINE
  5
169
100
AcDbEntity
  8
0
 62
     0
100
AcDbLine
 10
53.0
 20
53.0
 11
147.0
 21
53.0
  0
LINE
  5
16A
100
AcDbEntity
  8
0
 62
     0
100
AcDbLine
 10
147.0
 20
53.0
 11
147.0
 21
147.0
  0
LINE
  5
16B
100
AcDbEntity
  8
0
 62
     0
100
AcDbLine
 10
147.0
 20
147.0
 11
63.0
 21
147.0
  0
LINE
  5
16C
100
AcDbEntity
  8
0
 62
     0
100
AcDbLine
 10
63.0
 20
147.0
 11
63.0
 21
63.0
  0
LINE
  5
16D
100
AcDbEntity
  8
0
 62
     0
100
AcDbLine
 10
63.0
 20
63.0
 11
137.0
 21
63.0
  0
LINE
  5
16E
100
AcDbEntity
  8
0
 62
     0
100
AcDbLine
 10
137.0
 20
63.0
 11
137.0
 21
137.0
  0
LINE
  5
16F
100
AcDbEntity
  8
0
 62
     0
100
AcDbLine
 10
137.0
 20
137.0
 11
74.0
 21
137.0
  0
LINE
  5
170
100
AcDbEntity
  8
0
 62
     0
100
AcDbLine
 10
74.0
 20
137.0
 11
74.0
 21
74.0
  0
LINE
  5
171
100
AcDbEntity
  8
0
 62
     0
100
AcDbLine
 10
74.0
 20
74.0
 11
126.0
 21
74.0
  0
LINE
  5
172
100
AcDbEntity
  8
0
 62
     0
100
AcDbLine
 10
126.0
 20
74.0
 11
126.0
 21
126.0
  0
LINE
  5
173
100
AcDbEntity
  8
0
 62
     0
100
AcDbLine
 10
126.0
 20
126.0
 11
84.0
 21
126.0
  0
LINE
  5
174
100
AcDbEntity
  8
0
 62
     0
100
AcDbLine
 10
84.0
 20
126.0
 11
84.0
 21
84.0
  0
LINE
  5
175
100
AcDbEntity
  8
0
 62
     0
100
AcDbLine
 10
84.0
 20
84.0
 11
116.0
 21
86.0
  0
LINE
  5
176
100
AcDbEntity
  8
0
 62
     0
100
AcDbLine
 10
116.0
 20
84.0
 11
116.0
 21
116.0
  0
LINE
  5
177
100
AcDbEntity
  8
0
 62
     0
100
AcDbLine
 10
116.0
 20
116.0
 11
95.0
 21
116.0
  0
LINE
  5
178
100
AcDbEntity
  8
0
 62
     0
100
AcDbLine
 10
95.0
 20
116.0
 11
95.0
 21
95.0
  0
LINE
  5
179
100
AcDbEntity
  8
0
 62
     0
100
AcDbLine
 10
95.0
 20
95.0
 11
105.0
 21
95.0
  0
ENDBLK
  5
17A
100
AcDbEntity
  8
0
100
AcDbBlockEnd
  0
BLOCK
  5
17C
100
AcDbEntity
  8
0
 62
     0
100
AcDbBlockBegin
  2
NORTH_POINT_1
 70
    66
 10
105.0
 20
105.0
 30
0.0
  3
NORTH_POINT_1
  1

  0
ATTDEF
  5
289
100
AcDbEntity
  8
0
100
AcDbText
 10
0.0
 20
0.0
 40
1.0
  1

100
AcDbAttributeDefinition
  3
Name
  2
NAME
 70
     1
  0
ATTDEF
  5
28A
100
AcDbEntity
  8
0
100
AcDbText
 10
0.0
 20
0.0
 40
1.0
  1

100
AcDbAttributeDefinition
  3
Feature Code
  2
FEATURE_CODE
 70
     1
  0
LINE
  5
17D
100
AcDbEntity
  8
0
 62
     0
100
AcDbLine
 10
105.0
 20
200.0
 11
95.0
 21
11.0
  0
LINE
  5
17E
100
AcDbEntity
  8
0
 62
     0
100
AcDbLine
 10
95.0
 20
11.0
 11
116.0
 21
11.0
  0
LINE
  5
17F
100
AcDbEntity
  8
0
 62
     0
100
AcDbLine
 10
116.0
 20
11.0
 11
105.0
 21
200.0
  0
ARC
  5
180
100
AcDbEntity
  8
0
 62
     0
100
AcDbCircle
 10
106.0
 20
52.0
 40
32.5653
100
AcDbArc
 50
287.314075
 51
80.314075
  0
ARC
  5
181
100
AcDbEntity
  8
0
 62
     0
100
AcDbCircle
 10
104.0
 20
52.0
 40
32.4188
100
AcDbArc
 50
100.637595
 51
253.637595
  0
LINE
  5
182
100
AcDbEntity
  8
0
 62
     0
100
AcDbLine
 10
137.0
 20
53.0
 11
147.0
 21
53.0
  0
LINE
  5
183
100
AcDbEntity
  8
0
 62
     0
100
AcDbLine
 10
74.0
 20
53.0
 11
63.0
 21
53.0
  0
LINE
  5
184
100
AcDbEntity
  8
0
 62
     0
100
AcDbLine
 10
89.0
 20
74.0
 11
89.0
 21
32.0
  0
LINE
  5
185
100
AcDbEntity
  8
0
 62
     0
100
AcDbLine
 10
89.0
 20
32.0
 11
98.0
 21
32.0
  0
LINE
  5
186
100
AcDbEntity
  8
0
 62
     0
100
AcDbLine
 10
98.0
 20
32.0
 11
98.0
 21
74.0
  0
LINE
  5
187
100
AcDbEntity
  8
0
 62
     0
100
AcDbLine
 10
98.0
 20
74.0
 11
89.0
 21
74.0
  0
LINE
  5
188
100
AcDbEntity
  8
0
 62
     0
100
AcDbLine
 10
121.0
 20
32.0
 11
121.0
 21
74.0
  0
LINE
  5
189
100
AcDbEntity
  8
0
 62
     0
100
AcDbLine
 10
121.0
 20
74.0
 11
113.0
 21
74.0
  0
LINE
  5
18A
100
AcDbEntity
  8
0
 62
     0
100
AcDbLine
 10
113.0
 20
74.0
 11
113.0
 21
32.0
  0
LINE
  5
18B
100
AcDbEntity
  8
0
 62
     0
100
AcDbLine
 10
113.0
 20
32.0
 11
121.0
 21
32.0
  0
LINE
  5
18C
100
AcDbEntity
  8
0
 62
     0
100
AcDbLine
 10
89.0
 20
74.0
 11
113.0
 21
32.0
  0
LINE
  5
18D
100
AcDbEntity
  8
0
 62
     0
100
AcDbLine
 10
98.0
 20
74.0
 11
121.0
 21
32.0
  0
LINE
  5
18E
100
AcDbEntity
  8
0
 62
     0
100
AcDbLine
 10
105.0
 20
0.0
 11
105.0
 21
200.0
  0
LINE
  5
18F
100
AcDbEntity
  8
0
 62
     0
100
AcDbLine
 10
93.0
 20
73.0
 11
93.0
 21
33.0
  0
LINE
  5
190
100
AcDbEntity
  8
0
 62
     0
100
AcDbLine
 10
94.0
 20
33.0
 11
94.0
 21
73.0
  0
LINE
  5
191
100
AcDbEntity
  8
0
 62
     0
100
AcDbLine
 10
95.0
 20
73.0
 11
95.0
 21
33.0
  0
LINE
  5
192
100
AcDbEntity
  8
0
 62
     0
100
AcDbLine
 10
96.0
 20
33.0
 11
96.0
 21
73.0
  0
LINE
  5
193
100
AcDbEntity
  8
0
 62
     0
100
AcDbLine
 10
91.0
 20
73.0
 11
91.0
 21
33.0
  0
LINE
  5
194
100
AcDbEntity
  8
0
 62
     0
100
AcDbLine
 10
92.0
 20
33.0
 11
92.0
 21
73.0
  0
LINE
  5
195
100
AcDbEntity
  8
0
 62
     0
100
AcDbLine
 10
120.0
 20
73.0
 11
120.0
 21
33.0
  0
LINE
  5
196
100
AcDbEntity
  8
0
 62
     0
100
AcDbLine
 10
119.0
 20
33.0
 11
119.0
 21
73.0
  0
LINE
  5
197
100
AcDbEntity
  8
0
 62
     0
100
AcDbLine
 10
118.0
 20
73.0
 11
118.0
 21
33.0
  0
LINE
  5
198
100
AcDbEntity
  8
0
 62
     0
100
AcDbLine
 10
117.0
 20
33.0
 11
117.0
 21
73.0
  0
LINE
  5
199
100
AcDbEntity
  8
0
 62
     0
100
AcDbLine
 10
116.0
 20
73.0
 11
116.0
 21
33.0
  0
LINE
  5
19A
100
AcDbEntity
  8
0
 62
     0
100
AcDbLine
 10
115.0
 20
33.0
 11
115.0
 21
73.0
  0
LINE
  5
19B
100
AcDbEntity
  8
0
 62
     0
100
AcDbLine
 10
92.0
 20
71.0
 11
113.0
 21
33.0
  0
LINE
  5
19C
100
AcDbEntity
  8
0
 62
     0
100
AcDbLine
 10
114.0
 20
33.0
 11
93.0
 21
73.0
  0
LINE
  5
19D
100
AcDbEntity
  8
0
 62
     0
100
AcDbLine
 10
94.0
 20
73.0
 11
116.0
 21
33.0
  0
LINE
  5
19E
100
AcDbEntity
  8
0
 62
     0
100
AcDbLine
 10
117.0
 20
33.0
 11
96.0
 21
73.0
  0
LINE
  5
19F
100
AcDbEntity
  8
0
 62
     0
100
AcDbLine
 10
97.0
 20
73.0
 11
120.0
 21
33.0
  0
LINE
  5
1A0
100
AcDbEntity
  8
0
 62
     0
100
AcDbLine
 10
119.0
 20
33.0
 11
97.0
 21
73.0
  0
ARC
  5
1A1
100
AcDbEntity
  8
0
 62
     0
100
AcDbCircle
 10
104.0
 20
52.0
 40
32.4188
100
AcDbArc
 50
100.729784
 51
253.729784
  0
ARC
  5
1A2
100
AcDbEntity
  8
0
 62
     0
100
AcDbCircle
 10
106.0
 20
52.0
 40
32.5653
100
AcDbArc
 50
287.191386
 51
80.191386
  0
LINE
  5
1A3
100
AcDbEntity
  8
0
 62
     0
100
AcDbLine
 10
113.0
 20
74.0
 11
113.0
 21
33.0
  0
ENDBLK
  5
1A4
100
AcDbEntity
  8
0
100
AcDbBlockEnd
  0
BLOCK
  5
1A6
100
AcDbEntity
  8
0
 62
     0
100
AcDbBlockBegin
  2
NORTH_POINT_2
 70
    66
 10
100.0
 20
84.0
 30
0.0
  3
NORTH_POINT_2
  1

  0
ATTDEF
  5
28B
100
AcDbEntity
  8
0
100
AcDbText
 10
0.0
 20
0.0
 40
1.0
  1

100
AcDbAttributeDefinition
  3
Name
  2
NAME
 70
     1
  0
ATTDEF
  5
28C
100
AcDbEntity
  8
0
100
AcDbText
 10
0.0
 20
0.0
 40
1.0
  1

100
AcDbAttributeDefinition
  3
Feature Code
  2
FEATURE_CODE
 70
     1
  0
ARC
  5
1A7
100
AcDbEntity
  8
0
 62
     0
100
AcDbCircle
 10
100.0
 20
30.0
 40
20.0
100
AcDbArc
 50
0.0
 51
180.0
  0
ARC
  5
1A8
100
AcDbEntity
  8
0
 62
     0
100
AcDbCircle
 10
100.0
 20
30.0
 40
20.0
100
AcDbArc
 50
180.0
 51
0.0
  0
ARC
  5
1A9
100
AcDbEntity
  8
0
 62
     0
100
AcDbCircle
 10
100.0
 20
30.0
 40
10.0
100
AcDbArc
 50
0.0
 51
180.0
  0
ARC
  5
1AA
100
AcDbEntity
  8
0
 62
     0
100
AcDbCircle
 10
100.0
 20
30.0
 40
10.0
100
AcDbArc
 50
180.0
 51
0.0
  0
LINE
  5
1AB
100
AcDbEntity
  8
0
 62
     0
100
AcDbLine
 10
70.0
 20
30.0
 11
130.0
 21
30.0
  0
LINE
  5
1AC
100
AcDbEntity
  8
0
 62
     0
100
AcDbLine
 10
86.0
 20
75.0
 11
89.0
 21
95.0
  0
LINE
  5
1AD
100
AcDbEntity
  8
0
 62
     0
100
AcDbLine
 10
89.0
 20
95.0
 11
113.0
 21
85.0
  0
LINE
  5
1AE
100
AcDbEntity
  8
0
 62
     0
100
AcDbLine
 10
114.0
 20
95.0
 11
112.0
 21
75.0
  0
LINE
  5
1AF
100
AcDbEntity
  8
0
 62
     0
100
AcDbLine
 10
112.0
 20
75.0
 11
87.0
 21
84.0
  0
LINE
  5
1B0
100
AcDbEntity
  8
0
 62
     0
100
AcDbLine
 10
100.0
 20
134.0
 11
91.0
 21
126.0
  0
LINE
  5
1B1
100
AcDbEntity
  8
0
 62
     0
100
AcDbLine
 10
100.0
 20
200.0
 11
91.0
 21
126.0
  0
LINE
  5
1B2
100
AcDbEntity
  8
0
 62
     0
100
AcDbLine
 10
100.0
 20
134.0
 11
109.0
 21
126.0
  0
LINE
  5
1B3
100
AcDbEntity
  8
0
 62
     0
100
AcDbLine
 10
109.0
 20
126.0
 11
100.0
 21
200.0
  0
LINE
  5
1B4
100
AcDbEntity
  8
0
 62
     0
100
AcDbLine
 10
100.0
 20
192.0
 11
100.0
 21
0.0
  0
LINE
  5
1B5
100
AcDbEntity
  8
0
 62
     0
100
AcDbLine
 10
89.0
 20
93.0
 11
113.0
 21
83.0
  0
LINE
  5
1B6
100
AcDbEntity
  8
0
 62
     0
100
AcDbLine
 10
113.0
 20
81.0
 11
88.0
 21
91.0
  0
LINE
  5
1B7
100
AcDbEntity
  8
0
 62
     0
100
AcDbLine
 10
88.0
 20
88.0
 11
113.0
 21
79.0
  0
LINE
  5
1B8
100
AcDbEntity
  8
0
 62
     0
100
AcDbLine
 10
112.0
 20
77.0
 11
88.0
 21
86.0
  0
ENDBLK
  5
1B9
100
AcDbEntity
  8
0
100
AcDbBlockEnd
  0
BLOCK
  5
1BB
100
AcDbEntity
  8
0
 62
     0
100
AcDbBlockBegin
  2
CIRCULAR_NTH_PT
 70
    66
 10
100.0
 20
100.0
 30
0.0
  3
CIRCULAR_NTH_PT
  1

  0
ATTDEF
  5
28D
100
AcDbEntity
  8
0
100
AcDbText
 10
0.0
 20
0.0
 40
1.0
  1

100
AcDbAttributeDefinition
  3
Name
  2
NAME
 70
     1
  0
ATTDEF
  5
28E
100
AcDbEntity
  8
0
100
AcDbText
 10
0.0
 20
0.0
 40
1.0
  1

100
AcDbAttributeDefinition
  3
Feature Code
  2
FEATURE_CODE
 70
     1
  0
LINE
  5
1BC
100
AcDbEntity
  8
0
 62
     0
100
AcDbLine
 10
132.0
 20
50.0
 11
69.0
 21
50.0
  0
LINE
  5
1BD
100
AcDbEntity
  8
0
 62
     0
100
AcDbLine
 10
69.0
 20
50.0
 11
69.0
 21
91.0
  0
LINE
  5
1BE
100
AcDbEntity
  8
0
 62
     0
100
AcDbLine
 10
69.0
 20
91.0
 11
37.0
 21
91.0
  0
LINE
  5
1BF
100
AcDbEntity
  8
0
 62
     0
100
AcDbLine
 10
37.0
 20
91.0
 11
100.0
 21
166.0
  0
LINE
  5
1C0
100
AcDbEntity
  8
0
 62
     0
100
AcDbLine
 10
132.0
 20
91.0
 11
132.0
 21
50.0
  0
LINE
  5
1C1
100
AcDbEntity
  8
0
 62
     0
100
AcDbLine
 10
100.0
 20
166.0
 11
163.0
 21
91.0
  0
LINE
  5
1C2
100
AcDbEntity
  8
0
 62
     0
100
AcDbLine
 10
163.0
 20
91.0
 11
132.0
 21
91.0
  0
LINE
  5
1C3
100
AcDbEntity
  8
0
 62
     0
100
AcDbLine
 10
84.0
 20
61.0
 11
84.0
 21
123.0
  0
LINE
  5
1C4
100
AcDbEntity
  8
0
 62
     0
100
AcDbLine
 10
84.0
 20
123.0
 11
116.0
 21
61.0
  0
LINE
  5
1C5
100
AcDbEntity
  8
0
 62
     0
100
AcDbLine
 10
116.0
 20
61.0
 11
116.0
 21
123.0
  0
ARC
  5
1C6
100
AcDbEntity
  8
0
 62
     0
100
AcDbCircle
 10
100.0
 20
100.0
 40
100.0
100
AcDbArc
 50
180.0
 51
0.0
  0
ARC
  5
1C7
100
AcDbEntity
  8
0
 62
     0
100
AcDbCircle
 10
100.0
 20
100.0
 40
100.0
100
AcDbArc
 50
0.0
 51
180.0
  0
ENDBLK
  5
1C8
100
AcDbEntity
  8
0
100
AcDbBlockEnd
  0
BLOCK
  5
1CA
100
AcDbEntity
  8
0
 62
     0
100
AcDbBlockBegin
  2
BOX_CROSS
 70
    66
 10
100.0
 20
100.0
 30
0.0
  3
BOX_CROSS
  1

  0
ATTDEF
  5
28F
100
AcDbEntity
  8
0
100
AcDbText
 10
0.0
 20
0.0
 40
1.0
  1

100
AcDbAttributeDefinition
  3
Name
  2
NAME
 70
     1
  0
ATTDEF
  5
290
100
AcDbEntity
  8
0
100
AcDbText
 10
0.0
 20
0.0
 40
1.0
  1

100
AcDbAttributeDefinition
  3
Feature Code
  2
FEATURE_CODE
 70
     1
  0
LINE
  5
1CB
100
AcDbEntity
  8
0
 62
     0
100
AcDbLine
 10
0.0
 20
0.0
 11
0.0
 21
200.0
  0
LINE
  5
1CC
100
AcDbEntity
  8
0
 62
     0
100
AcDbLine
 10
0.0
 20
200.0
 11
200.0
 21
200.0
  0
LINE
  5
1CD
100
AcDbEntity
  8
0
 62
     0
100
AcDbLine
 10
200.0
 20
200.0
 11
200.0
 21
0.0
  0
LINE
  5
1CE
100
AcDbEntity
  8
0
 62
     0
100
AcDbLine
 10
200.0
 20
0.0
 11
0.0
 21
0.0
  0
LINE
  5
1CF
100
AcDbEntity
  8
0
 62
     0
100
AcDbLine
 10
0.0
 20
0.0
 11
200.0
 21
200.0
  0
LINE
  5
1D0
100
AcDbEntity
  8
0
 62
     0
100
AcDbLine
 10
200.0
 20
0.0
 11
0.0
 21
200.0
  0
ENDBLK
  5
1FC
100
AcDbEntity
  8
0
100
AcDbBlockEnd
  0
BLOCK
  5
1FE
100
AcDbEntity
  8
0
 62
     0
100
AcDbBlockBegin
  2
INTERSTATE
 70
    66
 10
100.0
 20
100.0
 30
0.0
  3
INTERSTATE
  1

  0
ATTDEF
  5
291
100
AcDbEntity
  8
0
100
AcDbText
 10
0.0
 20
0.0
 40
1.0
  1

100
AcDbAttributeDefinition
  3
Name
  2
NAME
 70
     1
  0
ATTDEF
  5
292
100
AcDbEntity
  8
0
100
AcDbText
 10
0.0
 20
0.0
 40
1.0
  1

100
AcDbAttributeDefinition
  3
Feature Code
  2
FEATURE_CODE
 70
     1
  0
ARC
  5
1FF
100
AcDbEntity
  8
0
 62
     0
100
AcDbCircle
 10
62.7037
 20
123.1185
 40
127.284
100
AcDbArc
 50
284.698591
 51
31.698591
  0
ARC
  5
200
100
AcDbEntity
  8
0
 62
     0
100
AcDbCircle
 10
127.2963
 20
123.1185
 40
127.284
100
AcDbArc
 50
148.30141
 51
255.301409
  0
ARC
  5
201
100
AcDbEntity
  8
0
 62
     0
100
AcDbCircle
 10
133.0
 20
257.2
 40
77.2
100
AcDbArc
 50
240.512874
 51
299.487126
  0
ARC
  5
202
100
AcDbEntity
  8
0
 62
     0
100
AcDbCircle
 10
57.0
 20
257.2
 40
77.2
100
AcDbArc
 50
240.512874
 51
299.487126
  0
LINE
  5
203
100
AcDbEntity
  8
0
 62
     0
100
AcDbLine
 10
2.0
 20
140.0
 11
188.0
 21
140.0
  0
ENDBLK
  5
204
100
AcDbEntity
  8
0
100
AcDbBlockEnd
  0
BLOCK
  5
206
100
AcDbEntity
  8
0
 62
     0
100
AcDbBlockBegin
  2
HIGHWAY
 70
    66
 10
95.0
 20
95.0
 30
0.0
  3
HIGHWAY
  1

  0
ATTDEF
  5
293
100
AcDbEntity
  8
0
100
AcDbText
 10
0.0
 20
0.0
 40
1.0
  1

100
AcDbAttributeDefinition
  3
Name
  2
NAME
 70
     1
  0
ATTDEF
  5
294
100
AcDbEntity
  8
0
100
AcDbText
 10
0.0
 20
0.0
 40
1.0
  1

100
AcDbAttributeDefinition
  3
Feature Code
  2
FEATURE_CODE
 70
     1
  0
ARC
  5
207
100
AcDbEntity
  8
0
 62
     0
100
AcDbCircle
 10
230.4613
 20
134.6355
 40
57.1525
100
AcDbArc
 50
135.068592
 51
210.068592
  0
ARC
  5
208
100
AcDbEntity
  8
0
 62
     0
100
AcDbCircle
 10
127.8167
 20
74.1887
 40
61.9711
100
AcDbArc
 50
260.885527
 51
30.885527
  0
ARC
  5
209
100
AcDbEntity
  8
0
 62
     0
100
AcDbCircle
 10
115.783
 20
-9.9237
 40
23.0307
100
AcDbArc
 50
84.475889
 51
154.475889
  0
LINE
  5
20A
100
AcDbEntity
  8
0
 62
     0
100
AcDbLine
 10
190.0
 20
175.0
 11
171.0
 21
190.0
  0
ARC
  5
20B
100
AcDbEntity
  8
0
 62
     0
100
AcDbCircle
 10
133.0
 20
257.2
 40
77.2
100
AcDbArc
 50
240.512874
 51
299.487126
  0
ARC
  5
20C
100
AcDbEntity
  8
0
 62
     0
100
AcDbCircle
 10
57.0
 20
257.2
 40
77.2
100
AcDbArc
 50
240.512874
 51
299.487126
  0
LINE
  5
20D
100
AcDbEntity
  8
0
 62
     0
100
AcDbLine
 10
19.0
 20
190.0
 11
0.0
 21
175.0
  0
ARC
  5
20E
100
AcDbEntity
  8
0
 62
     0
100
AcDbCircle
 10
-40.4613
 20
134.6355
 40
57.1525
100
AcDbArc
 50
329.931408
 51
44.931408
  0
ARC
  5
20F
100
AcDbEntity
  8
0
 62
     0
100
AcDbCircle
 10
74.217
 20
-9.9237
 40
23.0307
100
AcDbArc
 50
25.524111
 51
95.524111
  0
ARC
  5
210
100
AcDbEntity
  8
0
 62
     0
100
AcDbCircle
 10
62.1833
 20
74.1887
 40
61.9711
100
AcDbArc
 50
149.114473
 51
279.114473
  0
LINE
  5
211
100
AcDbEntity
  8
0
 62
     0
100
AcDbLine
 10
17.0
 20
141.0
 11
173.0
 21
141.0
  0
ENDBLK
  5
212
100
AcDbEntity
  8
0
100
AcDbBlockEnd
  0
BLOCK
  5
214
100
AcDbEntity
  8
0
 62
     0
100
AcDbBlockBegin
  2
ARROW_HEAD
 70
    66
 10
100.0
 20
200.0
 30
0.0
  3
ARROW_HEAD
  1

  0
ATTDEF
  5
295
100
AcDbEntity
  8
0
100
AcDbText
 10
0.0
 20
0.0
 40
1.0
  1

100
AcDbAttributeDefinition
  3
Name
  2
NAME
 70
     1
  0
ATTDEF
  5
296
100
AcDbEntity
  8
0
100
AcDbText
 10
0.0
 20
0.0
 40
1.0
  1

100
AcDbAttributeDefinition
  3
Feature Code
  2
FEATURE_CODE
 70
     1
  0
LINE
  5
215
100
AcDbEntity
  8
0
 62
     0
100
AcDbLine
 10
100.0
 20
200.0
 11
168.0
 21
0.0
  0
LINE
  5
216
100
AcDbEntity
  8
0
 62
     0
100
AcDbLine
 10
32.0
 20
0.0
 11
100.0
 21
200.0
  0
ARC
  5
217
100
AcDbEntity
  8
0
 62
     0
100
AcDbCircle
 10
100.0
 20
-58.0
 40
89.3756
100
AcDbArc
 50
40.449719
 51
139.550281
  0
LINE
  5
218
100
AcDbEntity
  8
0
 62
     0
100
AcDbLine
 10
100.0
 20
183.0
 11
100.0
 21
42.0
  0
LINE
  5
219
100
AcDbEntity
  8
0
 62
     0
100
AcDbLine
 10
100.0
 20
42.0
 11
89.0
 21
40.0
  0
LINE
  5
21A
100
AcDbEntity
  8
0
 62
     0
100
AcDbLine
 10
89.0
 20
40.0
 11
89.0
 21
146.0
  0
LINE
  5
21B
100
AcDbEntity
  8
0
 62
     0
100
AcDbLine
 10
89.0
 20
146.0
 11
79.0
 21
114.0
  0
LINE
  5
21C
100
AcDbEntity
  8
0
 62
     0
100
AcDbLine
 10
79.0
 20
114.0
 11
79.0
 21
40.0
  0
LINE
  5
21D
100
AcDbEntity
  8
0
 62
     0
100
AcDbLine
 10
79.0
 20
40.0
 11
68.0
 21
37.0
  0
LINE
  5
21E
100
AcDbEntity
  8
0
 62
     0
100
AcDbLine
 10
68.0
 20
37.0
 11
68.0
 21
85.0
  0
LINE
  5
21F
100
AcDbEntity
  8
0
 62
     0
100
AcDbLine
 10
68.0
 20
85.0
 11
58.0
 21
55.0
  0
LINE
  5
220
100
AcDbEntity
  8
0
 62
     0
100
AcDbLine
 10
58.0
 20
55.0
 11
58.0
 21
32.0
  0
LINE
  5
221
100
AcDbEntity
  8
0
 62
     0
100
AcDbLine
 10
58.0
 20
32.0
 11
43.0
 21
18.0
  0
LINE
  5
222
100
AcDbEntity
  8
0
 62
     0
100
AcDbLine
 10
43.0
 20
18.0
 11
58.0
 21
54.0
  0
LINE
  5
223
100
AcDbEntity
  8
0
 62
     0
100
AcDbLine
 10
111.0
 20
40.0
 11
111.0
 21
145.0
  0
LINE
  5
224
100
AcDbEntity
  8
0
 62
     0
100
AcDbLine
 10
111.0
 20
145.0
 11
121.0
 21
113.0
  0
LINE
  5
225
100
AcDbEntity
  8
0
 62
     0
100
AcDbLine
 10
121.0
 20
113.0
 11
121.0
 21
39.0
  0
LINE
  5
226
100
AcDbEntity
  8
0
 62
     0
100
AcDbLine
 10
121.0
 20
39.0
 11
132.0
 21
36.0
  0
LINE
  5
227
100
AcDbEntity
  8
0
 62
     0
100
AcDbLine
 10
132.0
 20
36.0
 11
132.0
 21
83.0
  0
LINE
  5
228
100
AcDbEntity
  8
0
 62
     0
100
AcDbLine
 10
132.0
 20
83.0
 11
142.0
 21
53.0
  0
LINE
  5
229
100
AcDbEntity
  8
0
 62
     0
100
AcDbLine
 10
142.0
 20
53.0
 11
142.0
 21
32.0
  0
LINE
  5
22A
100
AcDbEntity
  8
0
 62
     0
100
AcDbLine
 10
142.0
 20
32.0
 11
155.0
 21
21.0
  0
LINE
  5
22B
100
AcDbEntity
  8
0
 62
     0
100
AcDbLine
 10
155.0
 20
21.0
 11
142.0
 21
52.0
  0
ENDBLK
  5
22C
100
AcDbEntity
  8
0
100
AcDbBlockEnd
  0
BLOCK
  5
22E
100
AcDbEntity
  8
0
 62
     0
100
AcDbBlockBegin
  2
RIGHT_POINTER
 70
    66
 10
190.0
 20
190.0
 30
0.0
  3
RIGHT_POINTER
  1

  0
ATTDEF
  5
297
100
AcDbEntity
  8
0
100
AcDbText
 10
0.0
 20
0.0
 40
1.0
  1

100
AcDbAttributeDefinition
  3
Name
  2
NAME
 70
     1
  0
ATTDEF
  5
298
100
AcDbEntity
  8
0
100
AcDbText
 10
0.0
 20
0.0
 40
1.0
  1

100
AcDbAttributeDefinition
  3
Feature Code
  2
FEATURE_CODE
 70
     1
  0
ARC
  5
22F
100
AcDbEntity
  8
0
 62
     0
100
AcDbCircle
 10
410.4237
 20
-47.3282
 40
323.9001
100
AcDbArc
 50
132.885053
 51
171.597866
  0
LINE
  5
230
100
AcDbEntity
  8
0
 62
     0
100
AcDbLine
 10
178.0
 20
183.0
 11
190.0
 21
190.0
  0
LINE
  5
231
100
AcDbEntity
  8
0
 62
     0
100
AcDbLine
 10
190.0
 20
190.0
 11
183.0
 21
178.0
  0
ARC
  5
232
100
AcDbEntity
  8
0
 62
     0
100
AcDbCircle
 10
179.1667
 20
179.1667
 40
4.0069
100
AcDbArc
 50
343.072486
 51
106.927514
  0
LINE
  5
233
100
AcDbEntity
  8
0
 62
     0
100
AcDbLine
 10
182.0
 20
183.0
 11
186.0
 21
187.0
  0
LINE
  5
234
100
AcDbEntity
  8
0
 62
     0
100
AcDbLine
 10
186.0
 20
187.0
 11
180.0
 21
183.0
  0
LINE
  5
235
100
AcDbEntity
  8
0
 62
     0
100
AcDbLine
 10
183.0
 20
182.0
 11
187.0
 21
186.0
  0
LINE
  5
236
100
AcDbEntity
  8
0
 62
     0
100
AcDbLine
 10
187.0
 20
186.0
 11
183.0
 21
180.0
  0
ENDBLK
  5
237
100
AcDbEntity
  8
0
100
AcDbBlockEnd
  0
BLOCK
  5
239
100
AcDbEntity
  8
0
 62
     0
100
AcDbBlockBegin
  2
LEFT_POINTER
 70
    66
 10
0.0
 20
190.0
 30
0.0
  3
LEFT_POINTER
  1

  0
ATTDEF
  5
299
100
AcDbEntity
  8
0
100
AcDbText
 10
0.0
 20
0.0
 40
1.0
  1

100
AcDbAttributeDefinition
  3
Name
  2
NAME
 70
     1
  0
ATTDEF
  5
29A
100
AcDbEntity
  8
0
100
AcDbText
 10
0.0
 20
0.0
 40
1.0
  1

100
AcDbAttributeDefinition
  3
Feature Code
  2
FEATURE_CODE
 70
     1
  0
ARC
  5
23A
100
AcDbEntity
  8
0
 62
     0
100
AcDbCircle
 10
-226.3636
 20
-50.4545
 40
330.2406
100
AcDbArc
 50
8.788133
 51
46.728948
  0
LINE
  5
23B
100
AcDbEntity
  8
0
 62
     0
100
AcDbLine
 10
0.0
 20
190.0
 11
7.0
 21
178.0
  0
ARC
  5
23C
100
AcDbEntity
  8
0
 62
     0
100
AcDbCircle
 10
10.8333
 20
179.1667
 40
4.0069
100
AcDbArc
 50
73.072486
 51
196.927514
  0
LINE
  5
23D
100
AcDbEntity
  8
0
 62
     0
100
AcDbLine
 10
7.0
 20
180.0
 11
3.0
 21
186.0
  0
LINE
  5
23E
100
AcDbEntity
  8
0
 62
     0
100
AcDbLine
 10
3.0
 20
186.0
 11
7.0
 21
182.0
  0
LINE
  5
23F
100
AcDbEntity
  8
0
 62
     0
100
AcDbLine
 10
8.0
 20
183.0
 11
4.0
 21
187.0
  0
LINE
  5
240
100
AcDbEntity
  8
0
 62
     0
100
AcDbLine
 10
4.0
 20
187.0
 11
9.0
 21
184.0
  0
LINE
  5
241
100
AcDbEntity
  8
0
 62
     0
100
AcDbLine
 10
9.0
 20
184.0
 11
0.0
 21
190.0
  0
ENDBLK
  5
242
100
AcDbEntity
  8
0
100
AcDbBlockEnd
  0
BLOCK
  5
244
100
AcDbEntity
  8
0
 62
     0
100
AcDbBlockBegin
  2
LAMP_POST
 70
    66
 10
100.0
 20
100.0
 30
0.0
  3
LAMP_POST
  1

  0
ATTDEF
  5
29B
100
AcDbEntity
  8
0
100
AcDbText
 10
0.0
 20
0.0
 40
1.0
  1

100
AcDbAttributeDefinition
  3
Name
  2
NAME
 70
     1
  0
ATTDEF
  5
29C
100
AcDbEntity
  8
0
100
AcDbText
 10
0.0
 20
0.0
 40
1.0
  1

100
AcDbAttributeDefinition
  3
Feature Code
  2
FEATURE_CODE
 70
     1
  0
LINE
  5
245
100
AcDbEntity
  8
0
 62
     0
100
AcDbLine
 10
60.0
 20
0.0
 11
130.0
 21
0.0
  0
LINE
  5
246
100
AcDbEntity
  8
0
 62
     0
100
AcDbLine
 10
94.0
 20
0.0
 11
94.0
 21
165.0
  0
LINE
  5
247
100
AcDbEntity
  8
0
 62
     0
100
AcDbLine
 10
162.0
 20
150.0
 11
130.0
 21
150.0
  0
LINE
  5
248
100
AcDbEntity
  8
0
 62
     0
100
AcDbLine
 10
131.0
 20
147.0
 11
116.0
 21
130.0
  0
LINE
  5
249
100
AcDbEntity
  8
0
 62
     0
100
AcDbLine
 10
140.0
 20
147.0
 11
134.0
 21
128.0
  0
LINE
  5
24A
100
AcDbEntity
  8
0
 62
     0
100
AcDbLine
 10
151.0
 20
147.0
 11
155.0
 21
128.0
  0
LINE
  5
24B
100
AcDbEntity
  8
0
 62
     0
100
AcDbLine
 10
161.0
 20
147.0
 11
172.0
 21
131.0
  0
LINE
  5
24C
100
AcDbEntity
  8
0
 62
     0
100
AcDbLine
 10
60.0
 20
1.0
 11
130.0
 21
1.0
  0
LINE
  5
24D
100
AcDbEntity
  8
0
 62
     0
100
AcDbLine
 10
117.0
 20
131.0
 11
132.0
 21
148.0
  0
LINE
  5
24E
100
AcDbEntity
  8
0
 62
     0
100
AcDbLine
 10
139.0
 20
147.0
 11
133.0
 21
128.0
  0
LINE
  5
24F
100
AcDbEntity
  8
0
 62
     0
100
AcDbLine
 10
150.0
 20
147.0
 11
154.0
 21
128.0
  0
LINE
  5
250
100
AcDbEntity
  8
0
 62
     0
100
AcDbLine
 10
160.0
 20
147.0
 11
171.0
 21
131.0
  0
ARC
  5
251
100
AcDbEntity
  8
0
 62
     0
100
AcDbCircle
 10
120.0
 20
165.0
 40
26.0
100
AcDbArc
 50
0.0
 51
180.0
  0
ARC
  5
252
100
AcDbEntity
  8
0
 62
     0
100
AcDbCircle
 10
146.0
 20
148.9667
 40
16.0333
100
AcDbArc
 50
3.69522
 51
176.30478
  0
ENDBLK
  5
253
100
AcDbEntity
  8
0
100
AcDbBlockEnd
  0
ENDSEC
  0
SECTION
  2
ENTITIES
  0
INSERT
  5
29E
100
AcDbEntity
  8
DEFAULT
100
AcDbBlockReference
 66
     1
  2
DOT
 10
518064.005086
 20
8053668.776
 30
3210.527821
  0
ATTRIB
  5
29F
100
AcDbEntity
  8
0
100
AcDbText
 10
518064.005086
 20
8053668.776
 30
3210.527821
 40
1.0
  1
vault1
100
AcDbAttribute
  2
NAME
 70
     1
  0
ATTRIB
  5
2A0
100
AcDbEntity
  8
0
100
AcDbText
 10
518064.005086
 20
8053667.676
 30
3210.527821
 40
1.0
  1

100
AcDbAttribute
  2
FEATURE_CODE
 70
     1
  0
SEQEND
  5
2A1
100
AcDbEntity
  8
0
  0
INSERT
  5
2A2
100
AcDbEntity
  8
DEFAULT
100
AcDbBlockReference
 66
     1
  2
DOT
 10
518066.331076
 20
8053668.31094
 30
3210.492059
  0
ATTRIB
  5
2A3
100
AcDbEntity
  8
0
100
AcDbText
 10
518066.331076
 20
8053668.31094
 30
3210.492059
 40
1.0
  1
vault2
100
AcDbAttribute
  2
NAME
 70
     1
  0
ATTRIB
  5
2A4
100
AcDbEntity
  8
0
100
AcDbText
 10
518066.331076
 20
8053667.21094
 30
3210.492059
 40
1.0
  1

100
AcDbAttribute
  2
FEATURE_CODE
 70
     1
  0
SEQEND
  5
2A5
100
AcDbEntity
  8
0
  0
INSERT
  5
2A6
100
AcDbEntity
  8
DEFAULT
100
AcDbBlockReference
 66
     1
  2
DOT
 10
518066.790219
 20
8053671.162061
 30
3210.534478
  0
ATTRIB
  5
2A7
100
AcDbEntity
  8
0
100
AcDbText
 10
518066.790219
 20
8053671.162061
 30
3210.534478
 40
1.0
  1
vault3
100
AcDbAttribute
  2
NAME
 70
     1
  0
ATTRIB
  5
2A8
100
AcDbEntity
  8
0
100
AcDbText
 10
518066.790219
 20
8053670.062061
 30
3210.534478
 40
1.0
  1

100
AcDbAttribute
  2
FEATURE_CODE
 70
     1
  0
SEQEND
  5
2A9
100
AcDbEntity
  8
0
  0
INSERT
  5
2AA
100
AcDbEntity
  8
DEFAULT
100
AcDbBlockReference
 66
     1
  2
DOT
 10
518064.928497
 20
8053671.597823
 30
3210.467073
  0
ATTRIB
  5
2AB
100
AcDbEntity
  8
0
100
AcDbText
 10
518064.928497
 20
8053671.597823
 30
3210.467073
 40
1.0
  1
vault4
100
AcDbAttribute
  2
NAME
 70
     1
  0
ATTRIB
  5
2AC
100
AcDbEntity
  8
0
100
AcDbText
 10
518064.928497
 20
8053670.497823
 30
3210.467073
 40
1.0
  1

100
AcDbAttribute
  2
FEATURE_CODE
 70
     1
  0
SEQEND
  5
2AD
100
AcDbEntity
  8
0
  0
INSERT
  5
2AE
100
AcDbEntity
  8
DEFAULT
100
AcDbBlockReference
 66
     1
  2
DOT
 10
518075.270978
 20
8053685.425567
 30
3210.470385
  0
ATTRIB
  5
2AF
100
AcDbEntity
  8
0
100
AcDbText
 10
518075.270978
 20
8053685.425567
 30
3210.470385
 40
1.0
  1
vault5
100
AcDbAttribute
  2
NAME
 70
     1
  0
ATTRIB
  5
2B0
100
AcDbEntity
  8
0
100
AcDbText
 10
518075.270978
 20
8053684.325567
 30
3210.470385
 40
1.0
  1

100
AcDbAttribute
  2
FEATURE_CODE
 70
     1
  0
SEQEND
  5
2B1
100
AcDbEntity
  8
0
  0
INSERT
  5
2B2
100
AcDbEntity
  8
DEFAULT
100
AcDbBlockReference
 66
     1
  2
DOT
 10
518076.175769
 20
8053689.494968
 30
3210.469109
  0
ATTRIB
  5
2B3
100
AcDbEntity
  8
0
100
AcDbText
 10
518076.175769
 20
8053689.494968
 30
3210.469109
 40
1.0
  1
vault6
100
AcDbAttribute
  2
NAME
 70
     1
  0
ATTRIB
  5
2B4
100
AcDbEntity
  8
0
100
AcDbText
 10
518076.175769
 20
8053688.394968
 30
3210.469109
 40
1.0
  1

100
AcDbAttribute
  2
FEATURE_CODE
 70
     1
  0
SEQEND
  5
2B5
100
AcDbEntity
  8
0
  0
INSERT
  5
2B6
100
AcDbEntity
  8
DEFAULT
100
AcDbBlockReference
 66
     1
  2
DOT
 10
518073.296165
 20
8053690.386917
 30
3210.407862
  0
ATTRIB
  5
2B7
100
AcDbEntity
  8
0
100
AcDbText
 10
518073.296165
 20
8053690.386917
 30
3210.407862
 40
1.0
  1
vault7
100
AcDbAttribute
  2
NAME
 70
     1
  0
ATTRIB
  5
2B8
100
AcDbEntity
  8
0
100
AcDbText
 10
518073.296165
 20
8053689.286917
 30
3210.407862
 40
1.0
  1

100
AcDbAttribute
  2
FEATURE_CODE
 70
     1
  0
SEQEND
  5
2B9
100
AcDbEntity
  8
0
  0
INSERT
  5
2BA
100
AcDbEntity
  8
DEFAULT
100
AcDbBlockReference
 66
     1
  2
DOT
 10
518071.981783
 20
8053686.291654
 30
3210.364615
  0
ATTRIB
  5
2BB
100
AcDbEntity
  8
0
100
AcDbText
 10
518071.981783
 20
8053686.291654
 30
3210.364615
 40
1.0
  1
vault8
100
AcDbAttribute
  2
NAME
 70
     1
  0
ATTRIB
  5
2BC
100
AcDbEntity
  8
0
100
AcDbText
 10
518071.981783
 20
8053685.191654
 30
3210.364615
 40
1.0
  1

100
AcDbAttribute
  2
FEATURE_CODE
 70
     1
  0
SEQEND
  5
2BD
100
AcDbEntity
  8
0
  0
INSERT
  5
2BE
100
AcDbEntity
  8
DEFAULT
100
AcDbBlockReference
 66
     1
  2
DOT
 10
518092.721643
 20
8053745.670419
 30
3210.499889
  0
ATTRIB
  5
2BF
100
AcDbEntity
  8
0
100
AcDbText
 10
518092.721643
 20
8053745.670419
 30
3210.499889
 40
1.0
  1
vault9
100
AcDbAttribute
  2
NAME
 70
     1
  0
ATTRIB
  5
2C0
100
AcDbEntity
  8
0
100
AcDbText
 10
518092.721643
 20
8053744.570419
 30
3210.499889
 40
1.0
  1

100
AcDbAttribute
  2
FEATURE_CODE
 70
     1
  0
SEQEND
  5
2C1
100
AcDbEntity
  8
0
  0
INSERT
  5
2C2
100
AcDbEntity
  8
DEFAULT
100
AcDbBlockReference
 66
     1
  2
DOT
 10
518093.906649
 20
8053748.159114
 30
3210.557857
  0
ATTRIB
  5
2C3
100
AcDbEntity
  8
0
100
AcDbText
 10
518093.906649
 20
8053748.159114
 30
3210.557857
 40
1.0
  1
vault10
100
AcDbAttribute
  2
NAME
 70
     1
  0
ATTRIB
  5
2C4
100
AcDbEntity
  8
0
100
AcDbText
 10
518093.906649
 20
8053747.059114
 30
3210.557857
 40
1.0
  1

100
AcDbAttribute
  2
FEATURE_CODE
 70
     1
  0
SEQEND
  5
2C5
100
AcDbEntity
  8
0
  0
INSERT
  5
2C6
100
AcDbEntity
  8
DEFAULT
100
AcDbBlockReference
 66
     1
  2
DOT
 10
518093.89804
 20
8053748.173599
 30
3210.485257
  0
ATTRIB
  5
2C7
100
AcDbEntity
  8
0
100
AcDbText
 10
518093.89804
 20
8053748.173599
 30
3210.485257
 40
1.0
  1
vault11
100
AcDbAttribute
  2
NAME
 70
     1
  0
ATTRIB
  5
2C8
100
AcDbEntity
  8
0
100
AcDbText
 10
518093.89804
 20
8053747.073599
 30
3210.485257
 40
1.0
  1

100
AcDbAttribute
  2
FEATURE_CODE
 70
     1
  0
SEQEND
  5
2C9
100
AcDbEntity
  8
0
  0
INSERT
  5
2CA
100
AcDbEntity
  8
DEFAULT
100
AcDbBlockReference
 66
     1
  2
DOT
 10
518091.397312
 20
8053749.237399
 30
3210.315408
  0
ATTRIB
  5
2CB
100
AcDbEntity
  8
0
100
AcDbText
 10
518091.397312
 20
8053749.237399
 30
3210.315408
 40
1.0
  1
vault12
100
AcDbAttribute
  2
NAME
 70
     1
  0
ATTRIB
  5
2CC
100
AcDbEntity
  8
0
100
AcDbText
 10
518091.397312
 20
8053748.137399
 30
3210.315408
 40
1.0
  1

100
AcDbAttribute
  2
FEATURE_CODE
 70
     1
  0
SEQEND
  5
2CD
100
AcDbEntity
  8
0
  0
INSERT
  5
2CE
100
AcDbEntity
  8
DEFAULT
100
AcDbBlockReference
 66
     1
  2
DOT
 10
518090.361734
 20
8053746.061035
 30
3209.811406
  0
ATTRIB
  5
2CF
100
AcDbEntity
  8
0
100
AcDbText
 10
518090.361734
 20
8053746.061035
 30
3209.811406
 40
1.0
  1
vault13
100
AcDbAttribute
  2
NAME
 70
     1
  0
ATTRIB
  5
2D0
100
AcDbEntity
  8
0
100
AcDbText
 10
518090.361734
 20
8053744.961035
 30
3209.811406
 40
1.0
  1

100
AcDbAttribute
  2
FEATURE_CODE
 70
     1
  0
SEQEND
  5
2D1
100
AcDbEntity
  8
0
  0
INSERT
  5
2D2
100
AcDbEntity
  8
DEFAULT
100
AcDbBlockReference
 66
     1
  2
DOT
 10
518103.45042
 20
8053751.153823
 30
3209.194587
  0
ATTRIB
  5
2D3
100
AcDbEntity
  8
0
100
AcDbText
 10
518103.45042
 20
8053751.153823
 30
3209.194587
 40
1.0
  1
trench1
100
AcDbAttribute
  2
NAME
 70
     1
  0
ATTRIB
  5
2D4
100
AcDbEntity
  8
0
100
AcDbText
 10
518103.45042
 20
8053750.053823
 30
3209.194587
 40
1.0
  1

100
AcDbAttribute
  2
FEATURE_CODE
 70
     1
  0
SEQEND
  5
2D5
100
AcDbEntity
  8
0
  0
INSERT
  5
2D6
100
AcDbEntity
  8
DEFAULT
100
AcDbBlockReference
 66
     1
  2
DOT
 10
518108.665398
 20
8053738.538232
 30
3207.765727
  0
ATTRIB
  5
2D7
100
AcDbEntity
  8
0
100
AcDbText
 10
518108.665398
 20
8053738.538232
 30
3207.765727
 40
1.0
  1
trench2
100
AcDbAttribute
  2
NAME
 70
     1
  0
ATTRIB
  5
2D8
100
AcDbEntity
  8
0
100
AcDbText
 10
518108.665398
 20
8053737.438232
 30
3207.765727
 40
1.0
  1

100
AcDbAttribute
  2
FEATURE_CODE
 70
     1
  0
SEQEND
  5
2D9
100
AcDbEntity
  8
0
  0
INSERT
  5
2DA
100
AcDbEntity
  8
DEFAULT
100
AcDbBlockReference
 66
     1
  2
DOT
 10
518116.569135
 20
8053726.26801
 30
3206.891242
  0
ATTRIB
  5
2DB
100
AcDbEntity
  8
0
100
AcDbText
 10
518116.569135
 20
8053726.26801
 30
3206.891242
 40
1.0
  1
trench3
100
AcDbAttribute
  2
NAME
 70
     1
  0
ATTRIB
  5
2DC
100
AcDbEntity
  8
0
100
AcDbText
 10
518116.569135
 20
8053725.16801
 30
3206.891242
 40
1.0
  1

100
AcDbAttribute
  2
FEATURE_CODE
 70
     1
  0
SEQEND
  5
2DD
100
AcDbEntity
  8
0
  0
INSERT
  5
2DE
100
AcDbEntity
  8
DEFAULT
100
AcDbBlockReference
 66
     1
  2
DOT
 10
518129.482413
 20
8053711.471254
 30
3206.116416
  0
ATTRIB
  5
2DF
100
AcDbEntity
  8
0
100
AcDbText
 10
518129.482413
 20
8053711.471254
 30
3206.116416
 40
1.0
  1
trench4
100
AcDbAttribute
  2
NAME
 70
     1
  0
ATTRIB
  5
2E0
100
AcDbEntity
  8
0
100
AcDbText
 10
518129.482413
 20
8053710.371254
 30
3206.116416
 40
1.0
  1

100
AcDbAttribute
  2
FEATURE_CODE
 70
     1
  0
SEQEND
  5
2E1
100
AcDbEntity
  8
0
  0
INSERT
  5
2E2
100
AcDbEntity
  8
DEFAULT
100
AcDbBlockReference
 66
     1
  2
DOT
 10
518147.634052
 20
8053692.815442
 30
3206.288863
  0
ATTRIB
  5
2E3
100
AcDbEntity
  8
0
100
AcDbText
 10
518147.634052
 20
8053692.815442
 30
3206.288863
 40
1.0
  1
trench5
100
AcDbAttribute
  2
NAME
 70
     1
  0
ATTRIB
  5
2E4
100
AcDbEntity
  8
0
100
AcDbText
 10
518147.634052
 20
8053691.715442
 30
3206.288863
 40
1.0
  1

100
AcDbAttribute
  2
FEATURE_CODE
 70
     1
  0
SEQEND
  5
2E5
100
AcDbEntity
  8
0
  0
INSERT
  5
2E6
100
AcDbEntity
  8
DEFAULT
100
AcDbBlockReference
 66
     1
  2
DOT
 10
518161.964519
 20
8053678.731844
 30
3207.138881
  0
ATTRIB
  5
2E7
100
AcDbEntity
  8
0
100
AcDbText
 10
518161.964519
 20
8053678.731844
 30
3207.138881
 40
1.0
  1
trench6
100
AcDbAttribute
  2
NAME
 70
     1
  0
ATTRIB
  5
2E8
100
AcDbEntity
  8
0
100
AcDbText
 10
518161.964519
 20
8053677.631844
 30
3207.138881
 40
1.0
  1

100
AcDbAttribute
  2
FEATURE_CODE
 70
     1
  0
SEQEND
  5
2E9
100
AcDbEntity
  8
0
  0
INSERT
  5
2EA
100
AcDbEntity
  8
DEFAULT
100
AcDbBlockReference
 66
     1
  2
DOT
 10
518168.280339
 20
8053673.897966
 30
3207.321019
  0
ATTRIB
  5
2EB
100
AcDbEntity
  8
0
100
AcDbText
 10
518168.280339
 20
8053673.897966
 30
3207.321019
 40
1.0
  1
dshack
100
AcDbAttribute
  2
NAME
 70
     1
  0
ATTRIB
  5
2EC
100
AcDbEntity
  8
0
100
AcDbText
 10
518168.280339
 20
8053672.797966
 30
3207.321019
 40
1.0
  1

100
AcDbAttribute
  2
FEATURE_CODE
 70
     1
  0
SEQEND
  5
2ED
100
AcDbEntity
  8
0
  0
INSERT
  5
2EE
100
AcDbEntity
  8
DEFAULT
100
AcDbBlockReference
 66
     1
  2
DOT
 10
518117.269465
 20
8053724.053853
 30
3210.475481
  0
ATTRIB
  5
2EF
100
AcDbEntity
  8
0
100
AcDbText
 10
518117.269465
 20
8053724.053853
 30
3210.475481
 40
1.0
  1
2ndtrench1
100
AcDbAttribute
  2
NAME
 70
     1
  0
ATTRIB
  5
2F0
100
AcDbEntity
  8
0
100
AcDbText
 10
518117.269465
 20
8053722.953853
 30
3210.475481
 40
1.0
  1

100
AcDbAttribute
  2
FEATURE_CODE
 70
     1
  0
SEQEND
  5
2F1
100
AcDbEntity
  8
0
  0
INSERT
  5
2F2
100
AcDbEntity
  8
DEFAULT
100
AcDbBlockReference
 66
     1
  2
DOT
 10
518106.367419
 20
8053706.320215
 30
3211.808551
  0
ATTRIB
  5
2F3
100
AcDbEntity
  8
0
100
AcDbText
 10
518106.367419
 20
8053706.320215
 30
3211.808551
 40
1.0
  1
2ndtrench2
100
AcDbAttribute
  2
NAME
 70
     1
  0
ATTRIB
  5
2F4
100
AcDbEntity
  8
0
100
AcDbText
 10
518106.367419
 20
8053705.220215
 30
3211.808551
 40
1.0
  1

100
AcDbAttribute
  2
FEATURE_CODE
 70
     1
  0
SEQEND
  5
2F5
100
AcDbEntity
  8
0
  0
INSERT
  5
2F6
100
AcDbEntity
  8
DEFAULT
100
AcDbBlockReference
 66
     1
  2
DOT
 10
518092.296848
 20
8053685.643558
 30
3211.288799
  0
ATTRIB
  5
2F7
100
AcDbEntity
  8
0
100
AcDbText
 10
518092.296848
 20
8053685.643558
 30
3211.288799
 40
1.0
  1
2ndtrench3
100
AcDbAttribute
  2
NAME
 70
     1
  0
ATTRIB
  5
2F8
100
AcDbEntity
  8
0
100
AcDbText
 10
518092.296848
 20
8053684.543558
 30
3211.288799
 40
1.0
  1

100
AcDbAttribute
  2
FEATURE_CODE
 70
     1
  0
SEQEND
  5
2F9
100
AcDbEntity
  8
0
  0
INSERT
  5
2FA
100
AcDbEntity
  8
DEFAULT
100
AcDbBlockReference
 66
     1
  2
DOT
 10
518081.538565
 20
8053673.846127
 30
3211.62585
  0
ATTRIB
  5
2FB
100
AcDbEntity
  8
0
100
AcDbText
 10
518081.538565
 20
8053673.846127
 30
3211.62585
 40
1.0
  1
2ndtrench4
100
AcDbAttribute
  2
NAME
 70
     1
  0
ATTRIB
  5
2FC
100
AcDbEntity
  8
0
100
AcDbText
 10
518081.538565
 20
8053672.746127
 30
3211.62585
 40
1.0
  1

100
AcDbAttribute
  2
FEATURE_CODE
 70
     1
  0
SEQEND
  5
2FD
100
AcDbEntity
  8
0
  0
INSERT
  5
2FE
100
AcDbEntity
  8
DEFAULT
100
AcDbBlockReference
 66
     1
  2
DOT
 10
518076.065222
 20
8053673.327768
 30
3213.257906
  0
ATTRIB
  5
2FF
100
AcDbEntity
  8
0
100
AcDbText
 10
518076.065222
 20
8053673.327768
 30
3213.257906
 40
1.0
  1
2ndtrench5
100
AcDbAttribute
  2
NAME
 70
     1
  0
ATTRIB
  5
300
100
AcDbEntity
  8
0
100
AcDbText
 10
518076.065222
 20
8053672.227768
 30
3213.257906
 40
1.0
  1

100
AcDbAttribute
  2
FEATURE_CODE
 70
     1
  0
SEQEND
  5
301
100
AcDbEntity
  8
0
  0
INSERT
  5
302
100
AcDbEntity
  8
DEFAULT
100
AcDbBlockReference
 66
     1
  2
DOT
 10
518138.146821
 20
8053619.84412
 30
3211.962121
  0
ATTRIB
  5
303
100
AcDbEntity
  8
0
100
AcDbText
 10
518138.146821
 20
8053619.84412
 30
3211.962121
 40
1.0
  1
SUMM
100
AcDbAttribute
  2
NAME
 70
     1
  0
ATTRIB
  5
304
100
AcDbEntity
  8
0
100
AcDbText
 10
518138.146821
 20
8053618.74412
 30
3211.962121
 40
1.0
  1

100
AcDbAttribute
  2
FEATURE_CODE
 70
     1
  0
SEQEND
  5
305
100
AcDbEntity
  8
0
  0
ENDSEC
  0
SECTION
  2
OBJECTS
  0
DICTIONARY
  5
C
100
AcDbDictionary
  3
ACAD_GROUP
350
D
  3
ACAD_MLINESTYLE
350
E
  0
DICTIONARY
  5
D
102
{ACAD_REACTORS
330
C
102
}
100
AcDbDictionary
  0
DICTIONARY
  5
E
102
{ACAD_REACTORS
330
C
102
}
100
AcDbDictionary
  3
STANDARD
350
1C
  0
MLINESTYLE
  5
1C
102
{ACAD_REACTORS
330
E
102
}
100
AcDbMlineStyle
  2
STANDARD
 70
     0
  3

 62
     0
 51
90.0
 52
90.0
 71
     2
 49
0.5
 62
   256
  6
BYLAYER
 49
-0.5
 62
   256
  6
BYLAYER
  0
ENDSEC
  0
EOF
